>
 >
Incident At Neshabur 1

Incident At Neshabur 1 Guitar Tabs

Carlos Santana - Incident At Neshabur 1 chords, tabs, tablatures, lyrics

Guitar lessons | Add/correct | Request | Top 50 tabs Artists:  A B C D E F G H I J K L M N O P Q R S T U V W X Y Z 0-9

Incident At Neshabur 1 Guitar Tabs – Carlos Santana

CD, Sheet music, Poster

Do you like Incident At Neshabur 1? Share with your friends now
Bass TabsTabsTabs v2
             *Incident At Neshabur (Alberto Gianquinto, Carlos Santana)*

Intro (Where the Guitar comes in) (00:19)
|-----------------------------------------------------------------------|
|-----------------------------5--3--------------------------------------|
|-----------------------------5--3--------------------------------------|
|-3-5-5----3-5-5----3-5-5-----5--3----3-5-5----3-5-5----3h5p3-----------|
|--------5--------5--------5-----------------5--------5-------5-3-1-----|
|-------------------------------------------------------------------3---|

|-----------------------------------------------------------------------|
|-----------------------------3--5--------------------------------------|
|-----------------------------3--5--------------------------------------|
|-3-5-5----3-5-5----3-5-5-----3--5----3-5-5----3-5-5----3h5p3-----------|
|--------5--------5--------5-----------------5--------5-------5-3-1-----|
|-------------------------------------------------------------------3---|

|-----------------------------------------------------------------------|
|-----------------------------5--3--------------------------------------|
|-----------------------------5--3--------------------------------------|
|-3-5-5----3-5-5----3-5-5-----5--3----3-5-5----3-5-5----3h5p3-----------|
|--------5--------5--------5-----------------5--------5-------5-3-1-----|
|-------------------------------------------------------------------3---|

|-----------------------------------------------------------------------|
|-----------------------------3--5--------------------------------------|
|-----------------------------3--5--------------------------------------|
|-3-5-5----3-5-5----3-5-5-----3--5----3-5-5----3-5-5----3h5p3-----------|
|--------5--------5--------5-----------------5--------5-------5-3-1-----|
|-------------------------------------------------------------------3---|

Organ Solo Guitar Work:
|--------------------------------------|------2--------2--------2--------2-|
|-3--3-5----3--3-5----3--3-5----3--3-5-|-5--5-2---5--5-2---5--5-2---5--5-2-|
|-2--2-4----2--2-4----2--2-4----2--2-4-|-4--4-----4--4-----4--4-----4--4---|
|-0--0------0--0------0--0------0--0---|-2--2-----2--2-----2--2-----2--2---|
|--------------------------------------|-----------------------------------|
|--------------------------------------|-----------------------------------|

Guitar Solo (01:53):
|-----------------------------10-12--------------12-15\12--------------|
|-----------------------10-12-------12-----12-13-------------13-p12-10-|
|---------------9-10-12------------------------------------------------|
|-------9-10-12--------------------------------------------------------|
|-10-12----------------------------------------------------------------|
|----------------------------------------------------------------------|

|-------12------------------------------------8p7----8p7----------7-8-10-11-12-|
|-12-13----13p12-10------------10----------10-----10-----10----10--------------|
|-----------------------7-7h10------7-7h10-------------------------------------|
|------------------------------------------------------------------------------|
|------------------------------------------------------------------------------|
|------------------------------------------------------------------------------|

|------------------------------------------------------------------------|
|-12-13p12p10-12----10-8------10-------------10---------10---------10----|
|----------------12------7h10----10---7-7h10-----7-7h10-----7-7h10----10-|
|------------------------------------------------------------------------|
|------------------------------------------------------------------------|
|------------------------------------------------------------------------|

|-------------------------------------------------12-15-12---------------------------|
|--------10------------10----------------12-13-15----------13-12----13-p12-----------|
|-7-7h10----10--7-7h10----10-7-10-7-10---------------------------14--------14--------|
|-----------------------------------------------------------------------------15-12--|
|------------------------------------------------------------------------------------|
|------------------------------------------------------------------------------------|

|----------12-15-12----------------------------------------1---3h4-3---1--1-----------|
|-12-13-15----------13b15----13b15-15-13p10----------------1---------5------4p1-------|
|-------------------------------------------12-10----10----2--------------------3p5---|
|-------------------------------------------------12-------3------------------------3-|
|-------------------------------------------------------------------------------------|
|-------------------------------------------------------------------------------------|

|----------------------------------------------------------------------------|
|----------------------------------5--3--------------------------------------|
|----------------------------------5--3--------------------------------------|
|1-2---3-5-5----3-5-5----3-5-5-----5--3----3-5-5----3-5-5----3h5p3-----------|
|-------------5--------5--------5-----------------5--------5-------5-3-1-----|
|------------------------------------------------------------------------3---|

|-----------------------------------------------------------------------|
|-----------------------------3--5--------------------------------------|
|-----------------------------3--5--------------------------------------|
|-3-5-5----3-5-5----3-5-5-----3--5----3-5-5----3-5-5----3h5p3-----------|
|--------5--------5--------5-----------------5--------5-------5-3-1-----|
|-------------------------------------------------------------------3---|


|-3-0---0---------------------|-3-0---0---------------------|
|-----1---1-0-1-0---0-------0-|-----1---1-0-1-0---0-------0-|
|-----------------0---0---0---|-----------------0---0---0---|
|-----------------------2-----|-----------------------2-----|
|-----------------------------|-----------------------------|
|-----------------------------|-----------------------------|

|-3-0---0-----------------------------------------------0--3------------------------|
|-----1---1-0-1-0---0-------0---3b5-----b3-1------0h1h3------3b5-(feedback)~--3p1p0-|
|-----------------0---0---0---------------------------------------------------------|
|-----------------------2-----------------------------------------------------------|
|-----------------------------------------------------------------------------------|
|-----------------------------------------------------------------------------------|

|-------0------0-0-0-3p0-0-0-5p0-0-0-7p0-0-0-8p0-0-0-10b12-|
|-0h1h3---1------------------------------------------------|
|----------------------------------------------------------|
|----------------------------------------------------------|
|----------------------------------------------------------|
|----------------------------------------------------------|

|-12-12-12-10h12p10---------------------------------------------15-13-12h13p12----|
|-------------------13-12---12-----12-13-15-13--13h15p13-----------------------15-|
|-------------------------9----------------------------------12-------------------|
|---------------------------------------------------------------------------------|
|---------------------------------------------------------------------------------|
|---------------------------------------------------------------------------------|

|----10-12--10h12p10------------------------------15-13-12h13p12----|
|-13-----------------13------------------------------------------15-|
|-----------------------12b14----14b12-12-12------------------------|
|-------------------------------------------------------------------|
|-------------------------------------------------------------------|
|-------------------------------------------------------------------|

|----10-12-10h12p10--------------0-3-0----------|
|-13----------------13-----------------1-0------|
|----------------------12b14--------------------|
|-----------------------------------------------|
|-----------------------------------------------|
|-----------------------------------------------|

Piano Solo Guitar chords:
C   G   C   G   C   D   C   D

|------------------0----------------0---|
|-0-(feedback)-------1-0------0-1-3-----|
|---------------------------------------|
|---------------------------------------|
|---------------------------------------|
|---------------------------------------|

|-7h10p7h10p7h10p7h10p7h10p7h10p7h10p7h10--8h10p8h10p8h10p8h10p8h10p8h10p8h10p8h10p8-|
|------------------------------------------------------------------------------------|
|------------------------------------------------------------------------------------|
|------------------------------------------------------------------------------------|
|------------------------------------------------------------------------------------|
|------------------------------------------------------------------------------------|

|-7h10p7h10p7h10p7h10p7h10p7h10p7h10p7h10--8h10p8h10p8h10p8h10p8h10p8h10p8h10p8h10p8-|
|------------------------------------------------------------------------------------|
|------------------------------------------------------------------------------------|
|------------------------------------------------------------------------------------|
|------------------------------------------------------------------------------------|
|------------------------------------------------------------------------------------|

Outro:
|-2h3-0----------------------|
|-------1-0------------------|
|-----------0----------------|
|-------------2--------------|
|---------------3-2----------|
|----------------------------|





Comments


Popular Carlos Santana tabs & chords
Batuka Bass Tabs
Corazon Espinado Bass Tabs
Evil Ways Chords
Why Dont You And I Chords
Europa 3 Tabs
Into The Night Tabs
Love Of My Life Tabs
Shes Not There Live Tabs
Stone Flower Tabs
I Dont Wanna Lose Your Love Ukulele


Song lyrics



↑ Back to top | Tablatures and chords are parodies/interpretations of the original songs. You may use it for private study, scholarship, research or language learning purposes only
© 2014 AZChords.com Contact us | Privacy policy | DMCA | Add/correct tabs | Request tabs | Top 50 tabs