>
 >
Im Gone

Im Gone Guitar Tabs

Carlos Santana - Im Gone chords, tabs, tablatures, lyrics

Guitar lessons | Add/correct | Request | Top 50 tabs Artists:  A B C D E F G H I J K L M N O P Q R S T U V W X Y Z 0-9

Im Gone Guitar Tabs – Carlos Santana

CD, Sheet music, Poster

Do you like Im Gone? Share with your friends now
Tabs
Song Title: I'm Gone
Artist/Band: Santana


Symbols:

h=hammer-on
p=pull-off
/=slide-up
\=slide-down
b=bend
r=release bend
///=tremolo picking

Tuning:Standard

e|--------------------------|------------------------|
B|--------------------------|------------------------|
G|--------------------------|------------------------|
D|-5-7p5--------------------|-5-7p5-----------3h5----|
A|-------7-5-7-7-7-----5h7--|-------7-5-7-7-7-----7--|
E|-----------------3h5------|------------------------|
  0:17

e|--------------------------|
B|--------------------------|
G|--------------------------|
D|-5-7p5--------------------|
A|-------7-5-7-7-7-----5h7--|
E|-----------------3h5------|
  0:25

e|-3-5p3--------------------|
B|-------5-3-5-5-5-----3h5--|
G|-----------------0h2------|
D|--------------------------|
A|--------------------------|
E|--------------------------|
  0:33

e|---------5-5-5-3------------------|
B|-5-5-5-3---------5-5-5-3----------|
G|-------------------------4-4-4-2--|
D|----------------------------------|
A|----------------------------------|
E|----------------------------------|
  0:37

e|---------5-5-5-3------------------|
B|-5-5-5-3---------5-5-5-3----------|
G|-------------------------4-4-4-2--|
D|----------------------------------|
A|----------------------------------|
E|----------------------------------|
  0:41

e|---------5-5-5-3-------------------------5-5-5-3--|
B|-5-5-5-3---------5-5-5-3---------5-5-5-3----------|
G|-------------------------4-4-4-2------------------|
D|--------------------------------------------------|
A|--------------------------------------------------|
E|--------------------------------------------------|
  0:44

e|----------------7-9-10-12--14-10h12-12-12\--|
B|-7-8-10--7-8-10-----------------------------|
G|--------------------------------------------|
D|--------------------------------------------|
A|--------------------------------------------|
E|--------------------------------------------|
  0:51

e|-----------------------|-----------------------|
B|-10-10-12-8---10-12-8--|-10-10-12-8---10-12-8--|
G|------------9----------|------------9----------|
D|-----------------------|-----------------------|
A|-----------------------|-----------------------|
E|-----------------------|-----------------------|
  0:57

e|----------------9-10-12-14-15p14p12----14-12----12-----------------------------|
B|---8-10p8-10-12---------------------15-------15----14-15p14p12----14-12-10-----|
G|-9-------------------------------------------------------------14----------12--|
D|-------------------------------------------------------------------------------|
A|-------------------------------------------------------------------------------|
E|-------------------------------------------------------------------------------|
  1:02

e|-12-12---12-12---12-12---12-12---12-|-12-12---12-12-12---12-12---12-12--|
B|-12-12---12-12---12-12---12-12---12-|-12-12---12-12-12---12-12---12-12--|
G|-12-12---12-12---12-12---12-12---12-|-12-12---12-12-12---12-12---12-12--|
D|------------------------------------|-----------------------------------|
A|------------------------------------|-----------------------------------|
E|------------------------------------|-----------------------------------|
  1:18

e|-12-12---12-12---12-12---12-12---12-|-12-12---12-12---12-12---12----12--|
B|-12-12---12-12---12-12---12-12---12-|-12-12---12-12---12-12---12-12-12--|
G|-12-12---12-12---12-12---12-12---12-|-12-12---12-12---12-12------12-----|
D|------------------------------------|-----------------------------------|
A|------------------------------------|-----------------------------------|
E|------------------------------------|-----------------------------------|
  1:27

e|--------------|-------------------------------|
B|-8------------|-8b10r8------------------------|
G|---9p7--------|--------9p7--------------------|
D|-------9------|------------9---------7-7p5h7--|
A|---------10p9-|--------------10p7-10----------|
E|--------------|-------------------------------|
  1:35

e|-------------------------------12-10/12-12-15-17p15----15-17-15-17b19-|
B|-------------------8---8-10/12----------------------15----------------|
G|-----------7---9p7---9------------------------------------------------|
D|-7h9---7h9---9--------------------------------------------------------|
A|----------------------------------------------------------------------|
E|----------------------------------------------------------------------|
  1:42

e|-17b19-17b19--15p12--15b17-15b17-15b17-17b19-|-17b19--17b19--|
B|---------------------------------------------|---------------|
G|---------------------------------------------|---------------|
D|---------------------------------------------|---------------|
A|---------------------------------------------|---------------|
E|---------------------------------------------|---------------|
  1:47

e|-////15////12////17////12////15////12////15////17-|
B|--------------------------------------------------|
G|--------------------------------------------------|
D|--------------------------------------------------|
A|--------------------------------------------------|
E|--------------------------------------------------|
  1:53

e|-////19////21////22////21////19////17////19----------------|
B|--------------------------------------------20\17--15/17\--|
G|-----------------------------------------------------------|
D|-----------------------------------------------------------|
A|-----------------------------------------------------------|
E|-----------------------------------------------------------|
  1:55

e|-----------------------------|
B|-----------------------------|
G|-------7h9p7-----------------|
D|-7b9-9-------9p7p5---5h7-7p5-|
A|-------------------7---------|
E|-----------------------------|
  2:03

e|-----------------------------------------------|
B|-----------------------------------------------|
G|-------------7h9p7---7-------------------------|
D|-7b9-7b9-7b9-------9---9p7p5-7b9r7-4---5h7-7p5-|
A|-------------------------------------5---------|
E|-----------------------------------------------|. . . END
  2:07





Comments


Popular Carlos Santana tabs & chords
Put Your Lights On Bass Tabs
Soul Sacrifice 2 Bass Tabs
Black Magic Woman Tabs
Dirty Dancin Intro Tabs
Hermes Tabs
One Chain Tabs
Samba Pa Ti 4 Tabs
Yaleo Tabs
Daughter Of The Night Ukulele
The Sensitive Kind Ukulele


Song lyrics



↑ Back to top | Tablatures and chords are parodies/interpretations of the original songs. You may use it for private study, scholarship, research or language learning purposes only
© 2014 AZChords.com Contact us | Privacy policy | DMCA | Add/correct tabs | Request tabs | Top 50 tabs