>
 >
Hermes

Hermes Guitar Tabs

Carlos Santana - Hermes chords, tabs, tablatures, lyrics

Guitar lessons | Add/correct | Request | Top 50 tabs Artists:  A B C D E F G H I J K L M N O P Q R S T U V W X Y Z 0-9

Hermes Guitar Tabs – Carlos Santana

CD, Sheet music, Poster

Do you like Hermes? Share with your friends now
Tabs
Song Title:Hermes
Artist/Band: Santana




Symbols:


h:hammer-on
p:pull-off
/:slide-up
\:slide-down
~:left hand vibrato
b:bend
r:release bend
[]:bend before picking
////:tremolo picking
x:blocked string
():let ring
Tr.~~~:Trill


Tning: Standard


INTRO:

e|--------12--|-10------------------------------|
B|-15b17------|----10b12r10---10-8--------------|
G|------------|--------------------9-9---9---9--|
D|------------|----------------------------9----|
A|------------|---------------------------------|
E|------------|---------------------------------|


e|-------------------|
B|----------8--------|
G|-----7--9---9-7-9--|
D|-7/9---------------|
A|-------------------|
E|-------------------|


e|-10---------------------|
B|----10b12r10--8-10---8--|
G|-------------------9----|
D|------------------------|
A|------------------------|
E|------------------------|


e|------------------------------|
B|---------8-8--10--8h10--8h10--|
G|-----7-9----------------------|
D|-7h9--------------------------|
A|------------------------------|
E|------------------------------|


e|-------------------------------|
B|-12b15---12b15---12b15--12b15--|
G|-------------------------------|
D|-------------------------------|
A|-------------------------------|
E|-------------------------------|

Then:


"ROULÉ"


e|------------------------------------|
B|------------------------------------|
G|-7h9--7---7-----------------7-------|
D|--------9---9-7----7----7h9---7-----|
A|----------------10---10---------10--|
E|------------------------------------|


"ROULÉ"

e|-------10h12p10------------15p12--15p14----12----------------------------------|
B|-10b12----------12-10-------------------15----15-15----------------------------|
G|----------------------12-----------------------------14b16--14-12----12h14p12--|
D|-----------------------------------------------------------------14------------|
A|-------------------------------------------------------------------------------|
E|-------------------------------------------------------------------------------|

Lyrics, and then:


"ROULÉ"

e|-------------------------------------------------------------------------|
B|----------------8h10--8h10--10--10h12--10h12--12----10h12p12-------------|
G|-9h12--9h12--12----------------------------------------------12----9~~~--|
D|----------------------------------------------------------------12-------|
A|-------------------------------------------------------------------------|
E|-------------------------------------------------------------------------|


"ROULÉ"

e|-------------------------------------------------------------------|
B|-15b17---15b17--15b17--15b17----15b17r15p12--------------12--------|
G|---------------------------------------------14-12----14----14p12--|
D|---------------------------------------------------14--------------|
A|-------------------------------------------------------------------|
E|-------------------------------------------------------------------|

Horns, and then:

e|------------------------------|----------------------------------|
B|-----8--12--10-12-10--8~~~~\--|-7h8p7----------------------------|
G|-7h9--------------------------|-------9~~~\-----7h9p7------------|
D|------------------------------|-----------------------9p7h9~~~\--|
A|------------------------------|----------------------------------|
E|------------------------------|----------------------------------|


"ROULÉ"

e|----12--10--------------------------------------------|
B|---12------12-10-12----10----10-12-10-----------------|
G|--12----------------12----12----------12--9h12--------|
D|--X---------------------------------------------------|
A|-X----------------------------------------------------|
E|------------------------------------------------------|


"ROULÉ"

e|-17p15p12---17p15p12--17p15--17p15p12--17p15p12---17p15-p17p15---17b19---17-17--19---------|
B|-----------------------------------------------------------------------------------19~~~\--|
G|-------------------------------------------------------------------------------------------|
D|-------------------------------------------------------------------------------------------|
A|-------------------------------------------------------------------------------------------|
E|-------------------------------------------------------------------------------------------|


"ROULÉ"

e|---24\--|
B|----X\--|
G|---21\--|
D|--------|
A|--------|
E|--------|

Percussion interlude, and then:

e|-----------------------------------|
B|-----------------------------------|
G|-9~~~---7-9--7---------------------|
D|---------------9~~~--7-9-7---------|
A|----------------------------10~~~--|
E|-----------------------------------|"...VAYA..."

SOLO:

                                                        (tremolo bar vibrato)
                                                            ||
                                                            \/
e|-------7~~~---------7-8-10-8-7----7~~~--|-----------------------------7-8-7---------------------------------|
B|-----8-----------10------------10-------|---7-8-10-8-7---7~~~-----7-9-------9-7--7h9---9~-9~-9~-9~-9~-------|
G|---9------------------------------------|-9------------9----------------------------------------------------|
D|-9--------------------------------------|--------------------------------------------------------------(0)--|
A|----------------------------------------|--------------------------------------------------------------(0)--|
E|----------------------------------------|-------------------------------------------------------------------|


e|--12-----12-12--12-----12-12--12------12-12---12-14-15-14-12--|
B|--15b17---------15b17--------15b17----------------------------|
G|--------------------------------------------------------------|
D|--------------------------------------------------------------|
A|--------------------------------------------------------------|
E|--------------------------------------------------------------|


e|-12-----12-12--12----12-12--12--------------------------------|
B|-15b17---------15b17--------15b17---15b17r15--12----12--------|
G|-------------------------------------------------14----14b16--|
D|--------------------------------------------------------------|
A|--------------------------------------------------------------|
E|--------------------------------------------------------------|

                              Tr.~~~~~   (slow bend)           Tr.~~~~~   (slow bend)
e|-15-15--17-17-15--17p15---17p15------////17b19-------////19--22p19--------22b24-----22b24-22b24--22b24r22--19--|
B|----------------------------------|----------------------------------------------------------------------------|
G|----------------------------------|----------------------------------------------------------------------------|
D|----------------------------------|----------------------------------------------------------------------------|
A|----------------------------------|----------------------------------------------------------------------------|
E|----------------------------------|----------------------------------------------------------------------------|

e|-15---15-15-15----15-15---15-15-15----////15--15-14-14--12-12----12\--|
B|-15---15-15-15----15-15---15-15-15----////15------------------15------|
G|----------------------------------------------------------------------|
D|----------------------------------------------------------------------|
A|----------------------------------------------------------------------|
E|----------------------------------------------------------------------|


Horns, and then:

"ROULÉ"

e|---------------------------------|
B|---------8-7---------------------|
G|-----7-9-----9-7-9-7-----7b9\5\--|
D|-7h9-----------------7-5---------|
A|---------------------------------|
E|---------------------------------|


"ROULÉ"

e|----------------------------------------------------------------------------|
B|-14b15--[14]b15r14--[14]b15r14--12----------------12-15-14-12----12----12\--|
G|-----------------------------------14-12----12-14-------------14----14------|
D|-----------------------------------------14---------------------------------|
A|----------------------------------------------------------------------------|
E|----------------------------------------------------------------------------|


"ROULÉ"

e|-12h15-12h15-15---15h17-15h17-17--17-19--19-19-19--22-24--22b24--|
B|-----------------------------------------------------------------|
G|-----------------------------------------------------------------|
D|-----------------------------------------------------------------|
A|-----------------------------------------------------------------|
E|-----------------------------------------------------------------|


 "ROULÉ"            "ROULÉ"         "ROULÉ"      "ROULÉ"     "ROULÉ"       "ROULÉ"

e|-[22]b24r2p19----[22]b24r22p19----[22]b24r22--[22]b24r22--[22]b24r22--|
B|----------------------------------------------------------------------|
G|----------------------------------------------------------------------|
D|----------------------------------------------------------------------|
A|----------------------------------------------------------------------|
E|----------------------------------------------------------------------|...END





Comments


Popular Carlos Santana tabs & chords
Changes Chords
Evil Ways Chords
The Sensitive Kind Chords
Why Dont You And I 2 Chords
Adouma Tabs
Black Magic Woman Live Tabs
Europa 1 Tabs
Guajira Tabs
One Chain Tabs
Victory Is Won Intro 2 Tabs


Song lyrics



↑ Back to top | Tablatures and chords are parodies/interpretations of the original songs. You may use it for private study, scholarship, research or language learning purposes only
© 2014 AZChords.com Contact us | Privacy policy | DMCA | Add/correct tabs | Request tabs | Top 50 tabs