>
 >
Everythings Comin Our Way

Everythings Comin Our Way Guitar Tabs

Carlos Santana - Everythings Comin Our Way chords, tabs, tablatures, lyrics

Guitar lessons | Add/correct | Request | Top 50 tabs Artists:  A B C D E F G H I J K L M N O P Q R S T U V W X Y Z 0-9

Everythings Comin Our Way Guitar Tabs – Carlos Santana

CD, Sheet music, Poster

Do you like Everythings Comin Our Way? Share with your friends now
Tabs
Song Title: Everything's Comin' Our Way
Artist/Band: Santana


Symbols:

h=hammer-on
p=pull-off
/=slide-up
b=bend
r=release bend

CHORDS:

For Intro:                    For Verses:         For Chorus:
  DMaj  Bm  Am    Em         GMaj  Bm  Am          GMaj Bm  Am
e|-10---7---5-----0--|      |--3----2---0---|    |---3---2---0--|
B|-10---7---5-----0--|      |--0----3---2---|    |---3---3---2--|
G|-11---7---5-----0--|      |--0----4---3---|    |---4---4---3--|
D|-12---9---7-----2--|      |--0----4---3---|    |---5---4---3--|
A|-12---9---7-----2--|      |--2----2---0---|    |---5---2---0--|
E|-10---7---5-----0--|      |--3----2---0---|    |---3---2---0--|

INTRO:

DMaj--Bm--Am

DMaj--Bm--Em

DMaj--Bm--Am

DMaj--Bm--Em

FIRST VERSE:                           Bm
e|-0--2----3----3/5---3---0h2---0---|---7----|
B|----------------------------------|---7----|
G|----------------------------------|---7----|
D|----------------------------------|---9----|
A|----------------------------------|---9----|
E|----------------------------------|---7----|
   O--pen--your-eyes, Let it  be--    -gin 

     Am   
with me 

Bm
  Brand new day,

 Am
Fresh new way to live,

     Bm        Am 
The mornin' is callin'

 Bm            Am 
Walk with me into the sun.

CHORUS:

GMaj           Bm         Am
 Everything is comin' our way

e|---------------|
B|---------------|
G|-----0-0-0-----|
D|-0h2--------2--|
A|---------------|
E|---------------|

GMaj           Bm         Am
 Everything is comin' our way

e|---------------|
B|---------------|
G|-----0-0-0-----|
D|-0h2--------2--|
A|---------------|
E|---------------|

GMaj           Bm         Am
 Everything is comin' our way

-Play INTRO part again.

DMaj--Bm--Am

DMaj--Bm--Em

  There's a Riff during this part:
    e|-10/12---12-10------------10h12p10-----------------|
    B|----------------12-10---------------12-12p10--8----|
    G|------------------------------------------------7--|
    D|---------------------------------------------------|
    A|---------------------------------------------------|
    E|---------------------------------------------------|

DMaj--Bm--Am

    e|-17b19-19-19r17-17-15-17-17--|
    B|-----------------------------|
    G|-----------------------------|
    D|-----------------------------|
    A|-----------------------------|
    E|-----------------------------|

DMaj--Bm--Em

    e|-12-----12-------------|
    B|-12--9--12--9---7------|
    G|------------------9----|
    D|--------------------9--|
    A|-----------------------|
    E|-----------------------|

SECOND VERSE:

 Bm         Am
Here's my hand

Bm               Am  
 Reaching out to you

GMaj          Am 
   Take it, darlin'

Bm         Am
  And lead me on, yeah.

-Play CHORUS part again.

-ORGAN SOLO
During this part, the sequence for guitar chords is:

-GMaj--Am--Bm--Am


Then, play CHORUS part again

-THIRD VERSE(this is played the same as second verse)

-CHORUS

-INTRO PART again

-Final RIFF:
e|-----------0-2--|
B|---------0------|
G|-------0--------|
D|-----2----------|
A|---2------------|
E|-0--------------|. . . END


That's all; this is a very simple song.





Comments


Popular Carlos Santana tabs & chords
Europa Bass Tabs
Well All Right Bass Tabs
Changes Chords
Smooth 2 Chords
Bella 1 Tabs
Guajira Tabs
Hoy Es Adios Intro 1 Tabs
Samba Pa Ti 2 Tabs
Smooth Tabs
Why Dont You And I Ukulele


Song lyrics



↑ Back to top | Tablatures and chords are parodies/interpretations of the original songs. You may use it for private study, scholarship, research or language learning purposes only
© 2014 AZChords.com Contact us | Privacy policy | DMCA | Add/correct tabs | Request tabs | Top 50 tabs