>
 >
Everybodys Everything

Everybodys Everything Guitar Tabs

Carlos Santana - Everybodys Everything chords, tabs, tablatures, lyrics

Guitar lessons | Add/correct | Request | Top 50 tabs Artists:  A B C D E F G H I J K L M N O P Q R S T U V W X Y Z 0-9

Everybodys Everything Guitar Tabs – Carlos Santana

CD, Sheet music, Poster

Do you like Everybodys Everything? Share with your friends now
Tabs
  [...............REPEAT..............................]
	     F7	       Bb/F	      F7      Bb/F F
|---------||-------------------------|---------------------------|
|---------||-4--------4-3------------|-4---4----3--1-------------|
|---------||-5--------5-3------------|-5---5----3--1^2-----------|
|---3-3-3-||:--3-3--3-----3-3--3-3-3-|----3---3--------3-3-3-3-3:|
|---------||-------------------------|---------------------------|
|---------||-------------------------|---------------------------|

|------------------------------|---------------------------------|
|-4----------4--3--------------|-4-----4------3--1---------------|
|-5----------5--3--------------|-5-----5------3--1^2-------------|
|----3-3---3-------3-3---3-3-3-|-----3------3---------3-3-3--3-3-|
|------------------------------|---------------------------------|
|------------------------------|---------------------------------|
 F7		    Bb7		       F7		 C7
[.....4 Times....]  [....2 Times....]  [....2 Times...]
|-----------------||-----------------||----------------||---------------|
|-----------------||-----------------||----------------||---------------|
|-----------------||-----------------||----------------||---------------|
|-----------------||------------1--3-||----------------||---------------|
|------------1--3-||-1--1--1-5-------||-----------1--3-||3-3--3-3--3--2-|
|-1--1--1-5-------||-----------------||-1--1--1-5------||---------------|
 Bb7	   F       Eb     E    F  C7#9		   
|--------|-------------------|------------|	  
|--------|-10--10--8--8---9--|10---4------|   PLAY VERSE
|--------|-10--10--8--8---9--|10---3------|     AGAIN
|--------|-10--10--8--8---9--|10---2------|	
|-1------|--8---8--6--6---7--|-8---3------|	
|--------|-------------------|------------|	
 ORGAN SOLO:
|------------------|---------------| |---------------|
|------------------|---------------| |---------------|
|------------------|---------------| |---------------|
|:-----------------|---------1--3-:| |----------1--3-|
|-------------1--3-|1-1--1-5-------| |1-1--1-5-------|
|-1--1---1-5-------|---------------| |---------------|
 GUITAR SOLO:
     ful   ful 		ful~~~~		 ful    1/2
|-------|------------------------------|-16^---16^---13^15^13----|
|---16^-|-16^(16)^13-16-16^```(16)-13--|----------------------15-|
|-------|------------------------------|-------------------------|
|-------|------------------------------|-------------------------|
|-------|------------------------------|-------------------------|
|-------|------------------------------|-------------------------|
   ~~~~			     full  
|-13---13-15^13-----13---13-15^---|-----13-----13-----13-----13-----13----|
|---------------15----------------|13^15---13^15--13^15--13^15--13^15--13^|
|---------------------------------|---------------------------------------|
|---------------------------------|---------------------------------------|
|---------------------------------|---------------------------------------|
|---------------------------------|---------------------------------------|
 (2 GUITARS AS ONE)				     (END 2 GUITARS AS ONE)
		 Wah-Wah
|-13-----13-----13-----13-----13------|----13----13----13----13------13-15|
^15--13^15--13^15--13^15--13^15--13^15|13^15-13^15-13^15-13^15--13-15-----|
|-------------------------------------|-----------------------------------|
|-3------3------3---3------3------3---|-----------------------------------|
|-------------------------------------|1-------1------1---1-----1-----1---|
|-------------------------------------|-----------------------------------|
  ful~~~~ ful	    ~~~~   1/2   1/2	       ful   ful~~~~     ~~~~~~
|-15^----15^---15--13--|--15^---15^---15-13--|15^----15^----15--13--|
|----------------------|---------------------|----------------------|
|----------------------|---------------------|----------------------|
|----------------------|---------------------|----------------------|
|----------------------|---------------------|----------------------|
|----------------------|---------------------|----------------------|
      ful......		 ful~~    ful        ~~~~~
|--x-15^````15`--15-13--|15^---x-15^----15--13-|----------13---13-----|
|--x--------------------|------x---------------|---13^15-----15-------|
|-----------------------|----------------------|-------------------15-|
|-----------------------|----------------------|----------------------|
|-----------------------|----------------------|----------------------|
|-----------------------|----------------------|----------------------|
		   ~~~		   ful		ful
|-13-13---------------|-----------------13----------------------|
|-13-13---13----------|---------------13--16-13-----------------|
|-------15--15-13-----|--13-15--1315^----------15^(15)^13--15---|
|-----------------15--|15-----15-------------------------15--15-|
|---------------------|-----------------------------------------|
|---------------------|-----------------------------------------|
		   ful    ful	        ful~~~~
|-------------------------------13-----------|
|----------------------13-----13--16^13-16^--|
|-13--15-13-15-13-15^----15^-----------------|
|---15---------------------------------------|
|--------------------------------------------|
|--------------------------------------------|
	      ful          ful				       ~~~ full
|------------------13--------------------|-------------------------------|
|-16^13-16^13----13--16^13---------------|-------------------------------|
|------------15^----------15^(15)13--15--|13-----------------------------|
|----------------------------------15--15|--15^13------------------------|
|----------------------------------------|-------15\13-11-13^11----13^---|
|----------------------------------------|---------------------13--------|
 ~~~     ~~ ~~~	     ful       ful	   full....................
|------------------|--------13---------13-|13---13---13--------13-------|
|------------------|-----13----16^---16---|-16^--16^--16^-16^---16^-16^-|
|------------------|-15^------------------|-----------------------------|
|------------------|----------------------|-----------------------------|
|13--13/16-16--16\-|----------------------|-----------------------------|
|------------------|----------------------|-----------------------------|
  ~~~~~~~~~  1.5~~~~~~~   ful  1/2   ~~ ~~~  ful 1/2  ~~~~
|-----------|----------|-16^--16^---13-13--|16^--16^-13---15^13---|
|(18)-------|18^-------|-------------------|-------------------15-|
|-----------|----------|-------------------|----------------------|
|-----------|----------|-------------------|----------------------|
|-----------|----------|-------------------|----------------------|
|-----------|----------|-------------------|----------------------|
 ful  ful ~~~~			  OUTRO
|16^-16^-13---15^13---|13\------| |-------------------|-------------------|
|------------------15-|---------| |-------------------|-------------------|
|---------------------|---------| |-------------------|-------------------|
|---------------------|---------| |:------------------|------------------:|
|---------------------|---------| |-------------------|-------5-5--3--3---|
|---------------------|---------| |-1--1-1-1-1--1-1-1-|1--1-1-----------5-|





Comments


Popular Carlos Santana tabs & chords
Into The Night Bass Tabs
Soul Sacrifice Bass Tabs
The Sensitive Kind Bass Tabs
Into The Night Chords
Just Feel Better 1 Chords
Smooth 4 Chords
Im Feeling You Tabs
Incident At Neshabur 1 Tabs
Love Of My Life 1 Tabs
Daughter Of The Night Ukulele


Song lyrics



↑ Back to top | Tablatures and chords are parodies/interpretations of the original songs. You may use it for private study, scholarship, research or language learning purposes only
© 2014 AZChords.com Contact us | Privacy policy | DMCA | Add/correct tabs | Request tabs | Top 50 tabs