>
 >
Europa 2

Europa 2 Guitar Tabs

Carlos Santana - Europa 2 chords, tabs, tablatures, lyrics

Guitar lessons | Add/correct | Request | Top 50 tabs Artists:  A B C D E F G H I J K L M N O P Q R S T U V W X Y Z 0-9

Europa 2 Guitar Tabs – Carlos Santana

CD, Sheet music, Poster

Do you like Europa 2? Share with your friends now
Bass TabsTabsTabs v2Tabs v3Tabs v4
Tablature: Bjarke - Eliasn (NubX)




                                                        
E||-------8--10--10-11--10---8----|--------------------|
B||----8-----------------------11-|--8-9~--------------|
G||-------------------------------|--------------------|
D||-------------------------------|--------------------|
A||-------------------------------|--------------------|
E||-------------------------------|--------------------|


                                                     
-----------8-8h10-8~-----------|--------------------|
------9-11-----------11--------|--------------------|
--------------------------10---|--12----------------|
-------------------------------|--------------------|
-------------------------------|--------------------|
-------------------------------|--------------------|


                                                       
-----------------------------|------------------------|
----8--9--11h-13--11---9-8---|----------8-------------|
---------------------------8/|--10--------8-10~-------|
-----------------------------|------------------------|
-----------------------------|------------------------|
-----------------------------|------------------------|


                                                             
-----------------------------|------------------------------|
--------8--9h-11--9--8-------|------------------------------|
----10-----------------10-8~-|--------10-8------------------|
-----------------------------|-------------10-8-------------|
-----------------------------|------------------8-6-10-6----|
-----------------------------|----------------------------8-|


                                                    
--8-----8--10h-11--10---8-----|--------------------|
--8--8---------------------11-|--8-9---------------|
--8---------------------------|--------------------|
------------------------------|--------------------|
------------------------------|--------------------|
------------------------------|--------------------|


                                                       
-----------8-8h10-8~-------------|--------------------|
------9-11-------------11--------|--------------------|
----------------------------10/--|--12~---------------|
---------------------------------|--------------------|
---------------------------------|--------------------|
---------------------------------|--------------------|


                                                      
-------------------------------|---------------------|
----8--9--11h-13--11--9-8------|---------------------|
--------------------------8/10-|---------8-10~-------|
-------------------------------|---------------------|
-------------------------------|---------------------|
-------------------------------|---------------------|


                                                                              
-------------------------------|--------------------|------------------13b---|
--------8--9h-11---9-8-9-8-----|--------------------|------------13----------|
----10---------------------10/-|--12~---------------|------12----------------|
-------------------------------|--------------------|------------------------|
-------------------------------|--------------------|------------------------|
-------------------------------|--------------------|------------------------|


                                                      
--13b---------------|------13-11-13--13/-16----------|
--------------------|-----------------------------11-|
--------------------|--------------------------12----|
--------------------|--------------------------------|
--------------------|--------------------------------|
--------------------|--------------------------------|


                                                                        
--10-13-13-11-13b-------13-11-13-11~|---13-----13r-13b-13b-13r13-11----|
------------------------------------|-------------------------------13-|
------------------------------------|----------------------------------|
------------------------------------|----------------------------------|
------------------------------------|----------------------------------|
------------------------------------|----------------------------------|


                                                                        
--13-11-10~---11-10------------------|------11r---11-8-----------------|
-------------------------------------|-----------------11-8r-----------|
----------------------12--10-8\7-----|----------------------10-10-8----|
-------------------------------------|------------------------------10-|
-------------------------------------|---------------------------------|
-------------------------------------|---------------------------------|


                                                     
----------------------------|--8--------------------|
--8-------------------------|--8--------------------|
----8-----------------------|--8----------7----8h---|
------10--------8\----------|-------10--------------|
------------------8-8-6-----|-----------------------|
------------------------8-8-|-----------------------|


                                                            
---------------------------|-------------------------------|
------8------------8-------|--------8----------------------|
--10---------8-10--------8-|--8-10---------10----8--10--8--|
-----------8---------------|------------8------------------|
---------------------------|-------------------------------|
---------------------------|-------------------------------|


                                                                       
----------------------------|---------------8---------8---------------|
--7-8-11-------7-8-11-------|--8-11-11-8-11---11--11b---11------------|
----------------------------|------------------------------10r10-8----|
-------------8------------8-|--------------------------------------10-|
----------------------------|-----------------------------------------|
----------------------------|-----------------------------------------|


                                                                   
-----------------------------|---------8--------------------------|
-------8------------8--------|------8----11-8----------------8----|
--8-10----------10-----------|--10b-----------10r-10-8----10---8~-|
-------------10-----------10-|-------------------------10---------|
-----------------------------|------------------------------------|
-----------------------------|------------------------------------|


                                                           
--------------------------------|-------------------------|
--------------------------------|-------------------------|
--------10-8--------------------|-------------7----8------|
-------------10-8---------------|-------10-------------10-|
------------------10-8-6-10-6---|-------------------------|
--------------------------------|--8----------------------|


                                                             
----------------------------|-------------------------------|
-------8------------8-------|-------8-----------------------|
--8-10---------8-10---------|--8-10---------10----8--10--8--|
-------------8------------8-|-------------8-----------------|
----------------------------|-------------------------------|
----------------------------|-------------------------------|


                                                                   
----------------------------|---------------8-----------8---------|
--7/8-11-------7/8-11-------|--8-11-11-8-11---11--11b-----11-8----|
----------------------------|----------------------------------10b|
-------------8------------8-|-------------------------------------|
----------------------------|-------------------------------------|
----------------------------|-------------------------------------|


                                                                       
------8----------------------------|------------8---------------------|
----8---11-8----------8------8-----|----------8---11-8----------------|
-------------10b-8------8h10---10~-|------10b----------10r-8-------10/|
-------------------10--------------|-------------------------10-12----|
-----------------------------------|----------------------------------|
-----------------------------------|----------------------------------|


                                                                        
--------------------------------------------|--------------------13b---|
--------------------------------------------|--------------13----------|
--12~-------------------12--12h14-12--12-14-|--12~---12----------------|
----------------10--14----------------------|--------------------------|
----------10/12-----------------------------|--------------------------|
--------------------------------------------|--------------------------|


                                                    
--13b---------------|------13r---11--13---11--13b--|
--------------------|------------------------------|
--------------------|------------------------------|
--------------------|------------------------------|
--------------------|------------------------------|
--------------------|------------------------------|


                                                        
--13r-13h11-13-11h-13---------|------13b---13r------11-|
------------------------------|------------------------|
------------------------------|------------------------|
------------------------------|------------------------|
------------------------------|------------------------|
------------------------------|------------------------|


                                                                       
--13-13r11-13-11-10---11-10---------|----11r-----11-8-----------------|
------------------------------------|-----------------11-8------------|
------------------------------------|----------------------10r10-8----|
------------------------------------|------------------------------10-|
------------------------------------|---------------------------------|
------------------------------------|---------------------------------|


                                                                           
-----------------------|-----------------------|--------------------------|
--8--------------------|-----------------------|-----8-8-----------8-11-9~|
----8------------------|-----8-8~--------------|--------------------------|
------10~------------8-|--10-----------------8-|--10----------------------|
-----------------------|-----------------------|--------------------------|
-----------------------|-----------------------|--------------------------|


                                                                     
--------------------------------------|-----------------------------|
----8-11-9~-8-------------------------|-----8-8----------8-11/13-13-|
--------------10/12\10-8----10b8------|-----------------------------|
-------------------------10------10-8-|--10-------------------------|
--------------------------------------|-----------------------------|
--------------------------------------|-----------------------------|


                                  
---11------------8-11-10-11-10-8-|
---------------8-----------------|
---------------------------------|
---------------------------------|
---------------------------------|
---------------------------------|


                                                                
--11-10-11-10-8-11-10-11-10-8-11-10-8-11-10-11-10-8-11-10-8-11b|
---------------------------------------------------------------|
---------------------------------------------------------------|
---------------------------------------------------------------|
---------------------------------------------------------------|
---------------------------------------------------------------|


                                                                    
-------11-10-8-11-10-8--------------8-11-13b|-----------13b---13b--|
-----------------------9-8------------------|----------------------|
---------------------------10-8-------------|----------------------|
--------------------------------10----------|----------------------|
--------------------------------------------|----------------------|
--------------------------------------------|----------------------|


                                                                   
--13r-13r-13r-13r---------|------------------|-----------------13-|
--------------------------|------------------|--------------------|
--------------------------|------------------|--------------------|
--------------------------|------------------|--------------------|
--------------------------|------------------|--------------------|
--------------------------|------------------|--------------------|


                                                                        
---13--11~-11~-11~-11~-11~-11~-11~|----8--8--------8-------------------|
----------------------------------|----------11b-----11-8--------------|
----------------------------------|-----------------------10b10-8----8-|
----------------------------------|-------------------------------10---|
----------------------------------|------------------------------------|
----------------------------------|------------------------------------|


                                                                            
--------------------------------------------|------------------------------|
------8-------------------------------------|--8~----8------11--9--8--9-8~-|
---10---8---------------------10-----7-8-10-|-----10----10-----------------|
-----------10-8-------------8-----10--------|------------------------------|
----------------10\8-6-8-10-----------------|------------------------------|
--------------------------------------------|------------------------------|


                                                                 
--------------------------------|-------------------------------|
----9-8---------8~--------------|--8-----8~-----11--9--8--9-6/8-|
--------10-8-10----------7-8-10-|-----10----10------------------|
----------------------10--------|-------------------------------|
--------------------------------|-------------------------------|
--------------------------------|-------------------------------|


                                                                     
------------------------------------|-------------------------------|
--8~--9-8---------8~----------------|--8-----8------11--9--8--9-6/8-|
----------10-8-10------------7/8-10-|-----10----10------------------|
--------------------------10--------|-------------------------------|
-----------------------10-----------|-------------------------------|
------------------------------------|-------------------------------|


                                                                  
-------------------------------|---------------------------------|
-----8---------8~--------------|--8-----8------11--9--8--9-------|
-------10-8-10----------7-8-10-|-----10----10--------------10/12-|
---------------------10--------|---------------------------------|
-------------------------------|---------------------------------|
-------------------------------|---------------------------------|


                                                          
--------------------------|---11~11----------11----11-13b|
-----------------11-13-13-|---------------------13-------|
--------------12----------|------------------------------|
--------------------------|------------------------------|
--------------------------|------------------------------|
--------------------------|------------------------------|


                                                    
--13-----13b--13-13b--13b--13b|--13b---------------|
------------------------------|--------------------|
------------------------------|--------------------|
------------------------------|--------------------|
------------------------------|--------------------|
------------------------------|--------------------|


                                                                           
--13-11--11--11--11--13r-13-11-13-11\--|--15-18-18-15-18b-18b--18r---15---|
---------------------------------------|----------------------------------|
---------------------------------------|----------------------------------|
---------------------------------------|----------------------------------|
---------------------------------------|----------------------------------|
---------------------------------------|----------------------------------|


                                                                                
-----15-15-18-15----15-15-18-15----15-15-18-15----15-15-18-15----15-18-15----15-
--18b------------18b------------18b------------18b------------18b---------18----
--------------------------------------------------------------------------------
--------------------------------------------------------------------------------
--------------------------------------------------------------------------------
--------------------------------------------------------------------------------


                                     
--18b-18b--18b--18r-15-----18-18-18-|
-----------------------18b----------|
------------------------------------|
------------------------------------|
------------------------------------|
------------------------------------|


                                                 
-----18-18----18-18----18-18----18-18-18-18--18-|
--18b------18b------18b------18b----------------|
------------------------------------------------|
------------------------------------------------|
------------------------------------------------|
------------------------------------------------|


                                                            
-----18----18----18----18----18----18----18----18----18----|
--18r---18r---18r---18r---18r---18r---18r---18r---18r------|
-----------------------------------------------------------|
-----------------------------------------------------------|
-----------------------------------------------------------|
-----------------------------------------------------------|


                              
-----18-------------11b---11-|
--18r---18\------------------|
-----------------------------|
-----------------------------|
-----------------------------|
-----------------------------|


                                                           
--11b-11-8-----------------------------------------8------|
-----------11-8-------------------------------------------|
----------------10r-8----10-8-------------------10b--10h8-|
----------------------10------10-8------------------------|
-----------------------------------10\8-6-8---------------|
--------------------------------------------8-------------|


                                                     
---------------------------------------------11r11--|
-----8-11h8----8-11h8----8-11b--11-8-------0--------|
--10b-------10b-------10b------------10-8-----------|
----------------------------------------------------|
----------------------------------------------------|
----------------------------------------------------|


                                             
--11-8--------------------------------------|
-------11-8---------------------------------|
------------10r-8-8-------------------------|
---------------------10-8-----------------8-|
--------------------------10\8-6---6-8/10---|
---------------------------------8----------|


                                                                               
---------------------------------------|-------------------------------18-18--|
---------------------------------------|-----16~--16-18---18/20-20--20--------|
-----------------------8--10r10-8------|--17----------------------------------|
--8~8~8~8~8~8~8~8~8~10------------10---|--------------------------------------|
---------------------------------------|--------------------------------------|
---------------------------------------|--------------------------------------|


                                                                  
---20b----20b--20b--20b--20b|---20b--20--20--20--20-20-20\--11b--|
----------------------------|------------------------------------|
----------------------------|------------------------------------|
----------------------------|------------------------------------|
----------------------------|------------------------------------|
----------------------------|------------------------------------|


                                                  
---11b--11b-11h8---------------------------------|
-----------------11h8----------------------------|
----------------------10r-8----10-8-------7-8-10-|
----------------------------10------10-10--------|
-------------------------------------------------|
-------------------------------------------------|


                                                                       
-------------------------------|--13/-15------------------------------|
--8-------------------15-16-18-|--------------------------------------|
-------------------17----------|------------17-15-17-15~-------7-8-10-|
-----10-10~--------------------|----------------------------10--------|
-------------------------------|--------------------------------------|
-------------------------------|--------------------------------------|


                                                                         
-------------------------------|--------18-15------18-18-18-18-18-18-18-|
--8-------------------15-16-18-|--18b----------18b----------------------|
-------------------17----------|----------------------------------------|
-----10-10~--------------------|----------------------------------------|
-------------------------------|----------------------------------------|
-------------------------------|----------------------------------------|


                                                 
-----18-18----18-18----18-18-----18----18-18----|
--18b------18b------18b------18b----18b------18b|
------------------------------------------------|
------------------------------------------------|
------------------------------------------------|
------------------------------------------------|


                                           
--18-18----18-18----18-18-18-18-18--------|
--------18b------18b---------------18b----|
------------------------------------------|
------------------------------------------|
------------------------------------------|
------------------------------------------|


                                                            
-----18----18----18----18----18----18----18----18----18----|
--18r---18r---18r---18r---18r---18r---18r---18r---18r------|
-----------------------------------------------------------|
-----------------------------------------------------------|
-----------------------------------------------------------|
-----------------------------------------------------------|


                                                                         
---------------------------------------|--------------------------------|
--18r18-18-18\-------16b------15-16-18-|--18b---------------------------|
---------------------------17----------|-------17-17~---17\------7-8-10-|
---------------------------------------|----------------------10--------|
---------------------------------------|--------------------------------|
---------------------------------------|--------------------------------|


                                                               
-----------------------|------------------|------------------||
--8--------------------|------------------|------------------||
-----------------------|------------------|------------------||
----10-10--------------|------------------|------------------||
-----------------------|------------------|------------------||
-----------------------|------------------|------------------||


Okay...  these are not my tabs but hey...
it's a good solo...





Comments


Popular Carlos Santana tabs & chords
Put Your Lights On Bass Tabs
Babylon Feeling Tabs
Chill Out Tabs
Con Santana Tabs
Da Le Yaleo Tabs
Feels Like Fire Intro Tabs
Im Gone Tabs
Moonflower Tabs
Victory Is Won 2 Tabs
I Dont Wanna Lose Your Love Ukulele


Song lyrics



↑ Back to top | Tablatures and chords are parodies/interpretations of the original songs. You may use it for private study, scholarship, research or language learning purposes only
© 2014 AZChords.com Contact us | Privacy policy | DMCA | Add/correct tabs | Request tabs | Top 50 tabs