>
 >
Europa

Europa Guitar Tabs

Carlos Santana - Europa chords, tabs, tablatures, lyrics

Guitar lessons | Add/correct | Request | Top 50 tabs Artists:  A B C D E F G H I J K L M N O P Q R S T U V W X Y Z 0-9

Europa Guitar Tabs – Carlos Santana

CD, Sheet music, Poster

Do you like Europa? Share with your friends now
Bass TabsTabsTabs v2Tabs v3Tabs v4

e|--8-10-10/11-10-8--------------8-8h10p8----------------|
B|-8----------------11-8h9--9-11----------11-------------|
G|-------------------------------------------10/12-------|
D|-------------------------------------------------------|
A|-------------------------------------------------------|
E|-------------------------------------------------------|

e|---------------------------------------------------------------------8----|
B|-8-9-11-13-9-8---------------8-9-9h11-9-8----------------------------8----|
G|---------------8-10--8h10-10--------------10-8-10-8------------------9----|
D|----------------------------------------------------10-8------------10----|
A|---------------------------------------------------------10----8----10----|
E|------------------------------------------------------------11---11--8----|


e|----8-10-10/11-10-8--------------8-8h10p8----------------|
B|---8----------------11-8h9--9-11----------11-------------|
G|---------------------------------------------10/12-------|
D|---------------------------------------------------------|
A|---------------------------------------------------------|
E|---------------------------------------------------------|

e|----------------------------------------------------------|
B|-8-9-11-13-9-8---------------8-9-9h11-9-8-----------------|
G|---------------8-10--8h10-10--------------10-10/12--------|
D|----------------------------------------------------------|
A|----------------------------------------------------------|
E|----------------------------------------------------------|

e|-------13/15-15--13-11-13/16-------11-13-13-11-13/15-13----13-----|
B|----13--------------------------13----------------------16----16--|
G|-12--------------------------12-----------------------------------|
D|------------------------------------------------------------------|
A|------------------------------------------------------------------|
E|------------------------------------------------------------------|

e|------15-15-15-15p13-------13-11-10h11p10--------------|
B|---------------------16-13-----------------------------|
G|------------------------------------------12-10--------|
D|------------------------------------------------13-12--|
A|-------------------------------------------------------|
E|-------------------------------------------------------|

e|--13-11--------------------------------------------8---|
B|--------13-11--------------------------------------8---|
G|--------------12-10-------10b----------------------9---|
D|--------------------13-10-----13-10-8-------------10---|
A|--------------------------------------10-8--------10---|
E|-------------------------------------------11-8-8--8---|

e|-----------------------------------------------------------------|
B|-------------8--------8--------------------6/8-11---6/8-11-------|
G|----7-8-8/10-----8/10-----8/10---10-8-10-8-----------------------|
D|-10------------8--------8------8----------------8----------------|
A|-----------------------------------------------------------------|
E|-----------------------------------------------------------------|

e|----------------8----8----------------------------------8-----------------|
B|---8-11-11-8-11---11b---11-------------8------8-------8---11-8------------|
G|---------------------------10b-8----10-----10------10----------10b-8------|
D|-8-------------------------------10------10-----10-------------------10---|
A|--------------------------------------------------------------------------|
E|--------------------------------------------------------------------------|

e|-----------------------------------|
B|----8------------------------------|
G|-10---8-10p8-----------------------|
D|-------------10-8------------------|
A|------------------10----8----------|
E|---------------------11---11-------|

e|-------------------------------------------------------------------|
B|---------------8--------8--------------------6/8-11---6/8-11-------|
G|------7-8-8/10-----8/10-----8/10---10-8-10-8-----------------------|
D|-8/10------------8--------8------8----------------8----------------|
A|-------------------------------------------------------------------|
E|-------------------------------------------------------------------|

e|----------------8-----8------------8-------------------------------|
B|---8-11-11-8-11---11b---11-8-----8---11-8------------8------8------|
G|-----------------------------10b----------10-8----10---8p10---10---|
D|-8---------------------------------------------10------------------|
A|-------------------------------------------------------------------|
E|-------------------------------------------------------------------|


e|-------8------------------------------------------------------------------|
B|-----8---11-8-------------------------------------------------------------|
G|-10b----------10-10-8----8----8-10/12-------------12-12h14p12-12-12h14p12-|
D|----------------------10---10-------------10-12h14------------------------|
A|-------------------------------------10h12--------------------------------|
E|--------------------------------------------------------------------------|

e|------13/15-15-13-11-13-11-13/15-15\13p11h13p11--|
B|---13--------------------------------------------|
G|12-----------------------------------------------|
D|-------------------------------------------------|
A|-------------------------------------------------|
E|-------------------------------------------------|

e|-15-15-13-11----13-11-10h11p10----|
B|-------------13-------------------|
G|----------------------------------|
D|----------------------------------|
A|----------------------------------|
E|----------------------------------|

e|-13-11-------------------------------------------------------------|
B|-------13-11-------------------------------------------------------|
G|-------------12-10----------10b-------------------------12-12------|
D|-------------------13-10--------13-10----10-13-13----10------------|
A|-------------------------13-----------13----------13---------------|
E|-------------------------------------------------------------------|

e|----------------------------------------------------------------11-----|
B|----11-------11-------11-------------------------------11-11-13--------|
G|-12----13-12----13-12----13-12-10-------------12-12-12-----------------|
D|----------------------------------13-10----10--------------------------|
A|----------------------------------------13-----------------------------|
E|-----------------------------------------------------------------------|

e|---8-11-11p10p8-11-11p10p8-11-11p10p8-11-11p10p8-11-11p10p8-11-11p10p8/13-|
B|-11-----------------------------------------------------------------------|
G|--------------------------------------------------------------------------|
D|--------------------------------------------------------------------------|
A|--------------------------------------------------------------------------|
E|--------------------------------------------------------------------------|

e|-11-10-8--------------------|
B|---------11-9-8-------------|
G|----------------10-8--------|
D|---------------------10-----|
A|----------------------------|
E|----------------------------|

e|--8-11/15-15-15-15-15~-15-13---------------------------------------|
B|-----------------------------16-16-16-16-16-16-16-16-13-13---------|
G|-----------------------------------------------------------15b-----|
D|-------------------------------------------------------------------|
A|-------------------------------------------------------------------|
E|-------------------------------------------------------------------|

e|-------------------------------------------------------------------|
B|--13---------------------------------------------------------------|
G|-----15-12----------------12---------------------------------------|
D|-----------15-13----13-15----13-------------------------12-13-15---|
A|-----------------15-------------15p13-------------13-15------------|
E|--------------------------------------15p11/13-15------------------|

e|--------------------------------------------------|
B|--------------------------------------------------|
G|--12----12----15-13-12-13-12-13p12----------12----|
D|-----15----15----------------------15-13-15-------|
A|--------------------------------------------------|
E|--------------------------------------------------|


e|--------------------------------------------------------|
B|--------------------------------------------------------|
G|--------------12----12----15-13-12-13-12----------12----|
D|-----12-13-15----15----15----------------15-13-15-------|
A|--15----------------------------------------------------|
E|--------------------------------------------------------|

e|--------------------------------------------------------------|
B|--------------------------------------------------------------|
G|--------------12----12----15-13-12-13-12-13p12----------12----|
D|-----12-13-15----15----15----------------------15-13-15-------|
A|--15----------------------------------------------------------|
E|--------------------------------------------------------------|

e|--------------------------------------------------11-11-------|
B|-----------------------------------------------13-------------|
G|--------------12----12----15-13-12-13-12-15-15----------------|
D|-----12-13-15----15----15-------------------------------------|
A|--15----------------------------------------------------------|
E|--------------------------------------------------------------|

e|--15-15-15-15-15-13-11-11-11-11-15p13p11h13p11--15-18-18-15/20-20-18p15---|
B|--------------------------------------------------------------------------|
G|--------------------------------------------------------------------------|
D|--------------------------------------------------------------------------|
A|--------------------------------------------------------------------------|
E|--------------------------------------------------------------------------|

5x
e|--15-15-18p15----|
B|-----------------|
G|-----------------|
D|-----------------|
A|-----------------|
E|-----------------|

e|--20-20-20-18----------18------|
B|--------------20-20-20---------|
G|-------------------------------|
D|-------------------------------|
A|-------------------------------|
E|-------------------------------|

e|--15-18-18-15-18-18-15-18-18-15-18-18-15-18-18-18-18-18------|
B|-------------------------------------------------------------|
G|-------------------------------------------------------------|
D|-------------------------------------------------------------|
A|-------------------------------------------------------------|
E|-------------------------------------------------------------|

||5x-----------------|
e|--15p13-15p13-15p13-\-13-13-13-13-11-----------------------|
B|-------------------------------------13-11-----------------|
G|-------------------------------------------12-10-----------|
D|-------------------------------------------------13-11\----|
A|-----------------------------------------------------------|
E|-----------------------------------------------------------|

e|--------------------------------------------------|
B|-----------12-12-15p12-12-12-15p12-12-12-15p12----|
G|-----10-------------------------------------------|
D|--10----13----------------------------------------|
A|--------------------------------------------------|
E|--------------------------------------------------|

e|-----------------------------------------------------------|
B|------------------------18-16------------------------------|
G|--15b-15br-12-----------------17-15------------------------|
D|--------------15-13-----------------17-15------------------|
A|---------------------15-------------------18-18-15---------|
E|---------------------------------------------------18-15---|

||3x---------|
e|-----------------------------------|
B|-----------------------------------|
G|-----------------------------------|
D|----------------13-15b-15-13-------|
A|--13-13-13---15--------------15----|
E|-----------------------------------|

e|------11-11-13-13-15-15-15-18-18-22-22-22-22-22-22-22-22-22-22-22---|
B|--12b---------------------------------------------------------------|
G|--------------------------------------------------------------------|
D|--------------------------------------------------------------------|
A|--------------------------------------------------------------------|
E|--------------------------------------------------------------------|

e|--13-13-13-11------------------------------------------------|
B|--------------13-11------------------------------------------|
G|--------------------12-10-------10----------------10-12------|
D|--------------------------13-10----13-10-10-12-13-------10---|
A|-------------------------------------------------------------|
E|-------------------------------------------------------------|

e|-----------13-15--------------------------------------|
B|--13-15-16-------13----13-----------------------------|
G|--------------------15----15-----------10-12----------|
D|------------------------------10-12-13-------10-10----|
A|------------------------------------------------------|
E|------------------------------------------------------|

e|-----------13-15--------------------------------------|
B|--13-15-16-------13-13----13--------------------------|
G|-----------------------15----15-----------10-12-------|
D|---------------------------------10-12-13-------10-10-|
A|------------------------------------------------------|
E|------------------------------------------------------|

e|-----------13-15--15-18-18-15-18-18-15-18-18-15-------|
B|--13-15-16--------------------------------------------|
G|------------------------------------------------------|
D|------------------------------------------------------|
A|------------------------------------------------------|
E|------------------------------------------------------|

5x > Fade out
e|--15p13-15p3-----|
B|-----------------|
G|-----------------|
D|-----------------|
A|-----------------|
E|-----------------|


|/=slide up
|\=slide down
|h=hammer-on
|p=pull-off
|~=vibrato
|b=bend
|br=release bend
============================





Comments


Popular Carlos Santana tabs & chords
Smooth 2 Bass Tabs
Black Magic Woman Live Tabs
Everybodys Everything Tabs
Hermes Tabs
Hope Youre Feeling Better Tabs
Into The Night 10 Tabs
Just Feel Better 1 Tabs
Samba De Sausalito Tabs
Victory Is Won Tabs
Victory Is Won Intro Tabs


Song lyrics



↑ Back to top | Tablatures and chords are parodies/interpretations of the original songs. You may use it for private study, scholarship, research or language learning purposes only
© 2014 AZChords.com Contact us | Privacy policy | DMCA | Add/correct tabs | Request tabs | Top 50 tabs