>
 >
El Farol 1

El Farol 1 Guitar Tabs

Carlos Santana - El Farol 1 chords, tabs, tablatures, lyrics

Guitar lessons | Add/correct | Request | Top 50 tabs Artists:  A B C D E F G H I J K L M N O P Q R S T U V W X Y Z 0-9

El Farol 1 Guitar Tabs – Carlos Santana

CD, Sheet music, Poster

Do you like El Farol 1? Share with your friends now
TabsTabs v2Tabs v3
Song name: El Farol- Love Is You [LIVE]
Live at Fillmore 2008

This is really a beautifull song played by Carlos Santana. I was just going through some


************************************

| /   slide up
| \   slide down
| h   hammer-on
| p   pull-off
| ~   vibrato
| +   harmonic
| x   Mute note
| b   Bend
| pb  Pre-bend
| br  Bend release
| pbr Pre-bend release
| brb Bend release bend

************************************

El Farol Intro
e|-----4-5-4--------------------4-5-4-5-45-4----------------------------|
B|-5-6-------6-5-5--5/6\5---5-6--------------6-5-6-5--3/5\3-------------|
G|-----------------------------------------------------------5-4--7-5-4-|
D|----------------------------------------------------------------------|
A|----------------------------------------------------------------------|
E|----------------------------------------------------------------------|

e|--------------|
B|--------------|
G|-4h5p4--------|
D|--------7---7-|
A|----------7---|
E|--------------|

e|------------------------------------------------------------------|
B|-13--------13-12--------------------------------------------------|
G|---------------------------13/14-------------------14-13----------|
D|----14-15--------12-h14-14-----------12------12-15-------15-15p14-|
A|----------------------------------15------15----------------------|
E|------------------------------------------------------------------|

e|---------------------------------------------------------------------|
B|-----------------------------13------------13-12---------------------|
G|-----------------------------------------------------12--------------|
D|-12----12-14h15p14\12--14--------14-15--15--------12----12-h14-12h14-|
A|----15---------------------------------------------------------------|
E|---------------------------------------------------------------------|

e|--------------------------------------------------------------------------|
B|--------------------------------------------------------------------------|
G|---------------13h14------------------14-13-------------------------------|
D|-12h14-12h14-------------12-----12-15-------15-15p14-12----12-14h15p14\12-|
A|----------------------15-----15-------------------------15----------------|
E|--------------------------------------------------------------------------|

e|---|
B|---|
G|---|
D|-14|
A|---|
E|---|


e|----------------1/3--------------------------------------------|
B|---5---5------5-----5------5---5--------------------------5----|
G|-5---5---7--7------------5---5----7--7-5----5--------5-7----7--|
D|------------------------------------------6---7---7------------|
A|---------------------------------------------------------------|
E|---------------------------------------------------------------|

e|-----------5-8-5h8p5---5------------------------------------------|
B|-------5-6-----------6---6-5---5----------------------------------|
G|---5-7-----------------------7-------5-7-7/9-7--7-5-----4-------4-|
D|-7---------------------------------7----------------6-----7-6-7---|
A|------------------------------------------------------7-----------|
E|------------------------------------------------------------------|

e|---------------------------------------------------------------|
B|-------------------/5-/5--8-6-5-----------12-13--------13-12---|
G|---4-5--4-5-7--5-7---------------------14----------------------|
D|-7----------------------------------14----------14-15----------|
A|---------------------------------------------------------------|
E|---------------------------------------------------------------|

e|---------------------------------------------------------------------|
B|---------------------------------------------------------------------|
G|---------------13/14-------------------14-13h14p13-------------------|
D|-12-h14-12h14------------12------12-15-------------15-15p14-12----12-|
A|----------------------15------15-------------------------------15----|
E|---------------------------------------------------------------------|

e|---------------------------------------------------------------|
B|-------------------13--------15-13-12--------------------------|
G|-----------------------------------------12--------------------|
D|-14h15p14\12--14\-----14-15-----------12----1212-h14-14-14~----|
A|---------------------------------------------------------------|
E|---------------------------------------------------------------|

e|--------------------------------------------------------------------|
B|--------------------------------------------------------------------|
G|-13/14\--------------------14-13------------------------------------|
D|------------12------12-15--------15-15p14-12----12--14h15p14\12--14-|
A|---------15------15--------------------------15---------------------|
E|--------------------------------------------------------------------|

e|----------------1/3-----------------------------------------|
B|---5---5------5-----5----5---5---------------------5---5----|
G|-5---5---7--7----------5---5---7--7-5------------5---5---7--|
D|----------------------------------------7/9-7---------------|
A|--------------------------------------7---------------------|
E|------------------------------------------------------------|

e|---------5-8-5h8p5---5--------------------------------------|
B|-----5-6-----------6---6-5---5h6p5--------5-----------------|
G|-5-7-----------------------7----------5-7---7--7-5-----4----|
D|------------------------------------7--------------6-----7--|
A|-----------------------------------------------------7------|
E|------------------------------------------------------------|

e|------------------------------------------------------------|
B|--------------------------/5-/5-----------------------------|
G|-----4----4-5--4-5-7--5-7-----------------------------------|
D|-6-7----7---------------------------------------------------|
A|------------------------------------------------------------|
E|------------------------------------------------------------|

Love Is You
e|---------------------------------------------------------------------|
B|------------------------8-------------------------------------8------|
G|-----5----7h9--7h9-7--7---7-9---------5----7/9\7/9--7/9p7--7----7-h9-|
D|-5-7---7------------------------555-7---7----------------------------|
A|---------------------------------------------------------------------|
E|---------------------------------------------------------------------|

e|---------------------------------------------------------------------|
B|---------10-----------------8--\7/8----------------------5--5-6------|
G|-9-10-12-----7/9-7--7-9-10------------5-5/7-5-7p5----5-7--------7----|
D|--------------------------------------------------7------------------|
A|---------------------------------------------------------------------|
E|---------------------------------------------------------------------|

e|------------------------------12p10----10-12---------------------------|
B|---5-6---8/10-8-8----------10-------13--------------8-\7/8-8b10r8b10r8-|
G|-5-----7-----------9-10-12-------------------7-9-10--------------------|
D|-----------------------------------------------------------------------|
A|-----------------------------------------------------------------------|
E|-----------------------------------------------------------------------|

e|---5-5h8p5---5--------------------------------|
B|-8---------8---8-5-------5-6------5-6---------|
G|-------------------7-5-------7--5-----7-(7)/9-|
D|----------------------------------------------|
A|----------------------------------------------|
E|----------------------------------------------|

Here Santana strums a chord I guess that it is an Am (I'm very bad in chords) then:

e|---------------------------15p12-15p12-15p12-15p12-15p12--15^-15^-15--|
B|---------------------------(listen to the song for the----------------|
G|-----5---5---5-5/7-------------speed of the pull-offs)----------------|
D|-5-7---7---7-------7-5-5----------------------------------------------|
A|----------------------------------------------------------------------|
E|----------------------------------------------------------------------|

e|-15^^----15-12h15p12----12-15-12h15p12----12---------------------------|
B|------15-------------15----------------15----15-13---------------------|
G|--------------------------------------------------------5---7h9--7h9-7-|
D|----------------------------------------------------5-7---7------------|
A|-----------------------------------------------------------------------|
E|-----------------------------------------------------------------------|

e|--------------------------------------------------------12p10----10--|
B|---8---------------------------------8---------------10-------13-----|
G|-7---7-h9-------5---7/9-----7/9-7\--7--7h9---9-10-12-----------------|
D|----------555-7---7-------7------------------------------------------|
A|---------------------------------------------------------------------|
E|---------------------------------------------------------------------|

e|------------8b10r8b10r8---8-5h8p5---5----------------------------------|
B|--------8-8-------------8---------8---8-5------------------------------|
G|-7-9-10-----------------------------------7-5--9-10------9-10----12/14-|
D|----------------------------------------------------12\-------12-------|
A|-----------------------------------------------------------------------|
E|-----------------------------------------------------------------------|

e|---------------------------------------------------------------------12-15-|
B|-----------------------------------------------------12---12-13-13/15------|
G|-12-12~-14p12--9-10-12-------------------12----12-14----14-----------------|
D|-----------------------------12----12-14----14-----------------------------|
A|-----------------------12-14----14-----------------------------------------|
E|-----------------------(This part is very fast)----------------------------|

e|-20^-20^^-20^-20^-20^-20b22r20-17h20p17----17-20-17\---12-10---------|
B|----------------------------------------20-------------------13------|
G|---------------------------------------------------------------------|
D|---------------------------------------------------------------------|
A|---------------------------------------------------------------------|
E|---------------------------------------------------------------------|

e|--------------------------------------------------|
B|-------------5-6---3/5----------------------------|
G|----9-10---------7-----5--4-4(4)/5----5-7---------|
D|-10------12-------------------------7-----5/7-5-5-|
A|--------------------------------------------------|
E|--------------------------------------------------|

e|-15h17-15\--20p19-17-\-15-\-12----12-------------------------------|
B|-------------------------------15----15-13-12-15-13-12-13-12-------|
G|-------------------------------------------------------------14-12-|
D|-------------------------------------------------------------------|
A|-------------------------------------------------------------------|
E|-------------------------------------------------------------------|

e|---------------------------------------------------12-10------------|
B|-----------------------------------------------10---------------8-8-|
G|----------------12-12----12h14-12\-----9-10-12-----------7-9-10-----|
D|-14-12\10-12/14-------14--------------------------------------------|
A|--------------------------------------------------------------------|
E|--------------------------------------------------------------------|

e|-8b10r8b10(10)r8---5-8-5\--------------------------------------------------|
B|-----------------8------------------------------------------------------10-|
G|---------------------------9-10---------9-10-----12h14-12-12~~~--9-10-12---|
D|--------------------------------12\--10------12----------------------------|
A|---------------------------------------------------------------------------|
E|---------------------------------------------------------------------------|

e|-12-10--10-12-13-15--12--20^-20^-20b22r20-17-20-20p17---17-------------17--|
B|------------------------------------------------------20---20-17-------17--|
G|-----------------------------------------------------------------19-17-19--|
D|---------------------------------------------------------------------------|
A|---------------------------------------------------------------------------|
E|---------------------------------------------------------------------------|

e|-171717-17-171717-17-171717-17-171717-17-171717-------------|
B|-171717-17-171717-17-171717-17-171717-17-171717--17~--18-17-|
G|--------19^-------19^-------19^-------19^-------------------|
D|------------------------------------------------------------|
A|------------------------------------------------------------|
E|------------------------------------------------------------|

                                B5         G5         E5         D5
e|-----------------------/12-15-1919191919-1515151515-1212121212-1010101010-|
B|------------------------------1919191919-1515151515-1212121212-1010101010-|
G|-----5---5/7------------------1616161616-1212121212-9-9-9-9-9--7-7-7-7-7--|
D|-5-7---7-----5/7--5-5-----------------------------------------------------|
A|--------------------------------------------------------------------------|
E|--------------------------------------------------------------------------|

   B5
e|-77---7---7---7-8----8-7-10--10--------------12----12-15-12h15p12----12---|
B|-77-----8---8-----10------------12--13-12-15----15----------------15------|
G|-44-----------------------------------------------------------------------|
D|--------------------------------------------------------------------------|
A|--------------------------------------------------------------------------|
E|--------------------------------------------------------------------------|

e|-19-17--------------------------------------------------------------------|
B|-------18-17-----------------------------------12-12-12-15-12-13----------|
G|-------------17--------------------------------------------------14-------|
D|----------------19-17-----------------------------------------------------|
A|----------------------19-17\15----15-15/17-19-----------------------------|
E|-------------------------------17-----------------------------------------|

e|----------12-----------------------------------12-------------------------|
B|-13-13-13----13-15-12--12-12-12-15--12-13---13----13-12-------------------|
G|--------------------------------------------------------14-12-------------|
D|--------------------------------------------------------------14-12-------|
A|--------------------------------------------------------------------14-12-|
E|--------------------------------------------------------------------------|

e|--------------------------------------------121315-15-19p1519p1519p1519p15-|
B|--------------------------------------121315-------------------------------|
G|------------------------4-5-------1214-------------------------------------|
D|----------------------5-----12-14------------------------------------------|
A|-------------2-3--3/7-------------(This part is fast)----------------------|
E|-14-12\--0-3---------------------------------------------------------------|

e|19p1519p1519p1519p15-20p1920p1920p1920p1920p1920p1920p19-20^-22^-22^-22^--|
B|--------------------------------------------------------------------------|
G|--------------------------------------------------------------------------|
D|--------------------------------------------------------------------------|
A|--------------------------------------------------------------------------|
E|--------------------------------------------------------------------------|

e|22^22^----20-22-20--20-20-19-19-15-15-12-12-------------------------------|
B|-------22-----------------------------------15-15-13-13-12-12-------------|
G|--------------------------------------------------------------12-12-9-9---|
D|-----------------------------------------------------------------------12-|
A|--------------------------------------------------------------------------|
E|--------------------------------------------------------------------------|

e|----------------------------|
B|----------------------------|
G|----------------------------|
D|-12-10-10-9-9-5-5-2-2-0-0---|
A|--------------------------3-|
E|----------------------------|

e|----------------------------------------12---------------------------------|
B|--------------13---------15------------------------------------------------|
G|-12h14-12-12-----12-12------12-12/14-------12/14-12-12/14-12-7-9-5-7-----5-|
D|------------------------------------12-------------------------------5-7---|
A|---------------------------------------------------------------------------|
E|---------------------------------------------------------------------------|

e|----------------------|
B|---------------8------|
G|-7h9--7h9-7--7---7-9--|
D|----------------------|
A|----------------------|
E|----------------------|

If there are any corrections or if something is not clear please contact me.
if someone wants the song  please sent me a mail I will send the song.
Rate the tab :d





Comments


Popular Carlos Santana tabs & chords
Evil Ways 2 Bass Tabs
Europa 3 Tabs
Flor D Luna Tabs
Hope Youre Feeling Better 1 Tabs
Hoy Es Adios Intro 1 Tabs
Luz Amor Y Vida Tabs
Mother Africa Tabs
Open Invitation Tabs
Twisted Tabs
Why Dont You And I Intro 1 Tabs


Song lyrics



↑ Back to top | Tablatures and chords are parodies/interpretations of the original songs. You may use it for private study, scholarship, research or language learning purposes only
© 2014 AZChords.com Contact us | Privacy policy | DMCA | Add/correct tabs | Request tabs | Top 50 tabs