>
 >
Dance Sister Dance

Dance Sister Dance Guitar Tabs

Carlos Santana - Dance Sister Dance chords, tabs, tablatures, lyrics

Guitar lessons | Add/correct | Request | Top 50 tabs Artists:  A B C D E F G H I J K L M N O P Q R S T U V W X Y Z 0-9

Dance Sister Dance Guitar Tabs – Carlos Santana

CD, Sheet music, Poster

Do you like Dance Sister Dance? Share with your friends now
Tabs
Tablature Explanation:
h=hammer-on
p=pull-off
/=slide up or indicates picking
\=slide down
b=bend half
^=bend full
br, ^r=bend &release

The CD times are at the bottom left of each measure.

Main Chords:
-|---F---------Eb---|
-|---10--------8----|
-|---10--------8----|
-|---10--------8----|
-|---8---------6----|
-|------------------|

Fill:
-|----------------------13------------|
-|-------------------13----16-13------|
-|----------------14-------------14---|
-|--15-16-17---15---------------------|
-|------------------------------------|
-|-0-13-------------------------------|

intro riff:
on a xylaphone or something
-|----------------------------------------------------------------|
-|-*------------------------------------------------------------*-|
-|-------------10------8------------------------------------------|
-|------7-10--------10-----8-10-----------------------------------|
-|-*--8---------------------------8-8-------6-6-------(8)(8)----*-|
-|-0-17-----------------------------------------------------------|

Next 4 measures are the

main guitar riff.
Reapeat throughout song
with slight variations:

-|------------------------------------13-----------|
-|------------13----------16----13----------16-----|
-|---------14-------14-------------13--------------|
-|---15-15-------------15--------------------------|
-|-------------------------------------------------|
-|-1-15--------------------------------------------|


-|-------------------------------------------------|
-|--------13----------16----13---------------------|
-|-----14-------14----------------15vvvvv^r13------|
-|--15-------------15------------------------15----|
-|-------------------------------------------------|
-|-------------------------------------------------|


-|--------------------------------13---------------|
-|--------16----------16----13----------16---------|
-|-----14-------14-------------13------------------|
-|--15-------------15------------------------------|
-|-------------------------------------------------|
-|-------------------------------------------------|


-|-------------------------------------------------|
-|-13-16-13-------13-------------------------------|
-|----------15-------15-13----15-13----------------|
-|----------------------------------15----15p13----|
-|---------------------------------------------15--|
-|-------------------------------------------------|


-|------------------------------------------------------------------------|
-|------------------------------------------------------------------------|
-|-15----13--------------13h15----13---------------13h15----13h15p13------|
-|------------------------------------------------------------------------|
-|------------------------------------------------------------------------|
-|-1-55-------------------------------------------------------------------|


-|----------------------------------------------------------------------------|
-|----------------------------------------------------------------------------|
-|---------------------13-----------------------13^---------------------------|
-|-13-15-13-15---15-15------------13-15-13-15---------15----------------------|
-|---------------------------------------------------------15p13--------------|
-|-3-03---------------------------------------------------------16------------|


-----------------------------13----------13-----------------------------|
--------------------------------------------16-13-----------------------|
-----------------13--13--15^-------15^------------15^r-13-15p13---------|
---13-15-13-15--------------------------------------------------15------|
------------------------------------------------------------------------|
------------------------------------------------------------------------|


-|-13--13-----13-13---15^------------13------------13----13----16^------------|
-|---------16---------------------16------------16----16----------------------|
-|----------------------------------------------------------------------------|
-|----------------------------------------------------------------------------|
-|----------------------------------------------------------------------------|
-|-3-17-----------------------------------------------------------------------|


-18r16-13----13------13-13-16-13----13-----------------|
----------16------16-------------16-----16p13----------|
---------------------------------------------15p13--13-|
--------------------------------------------------15---|
-------------------------------------------------------|
-------------------------------------------------------|


-|-------------------------------------------------------------------|
-|----1313---1313---1313---1313---1313---1313---1313-----------------|
-|-15^----15^----15^----15^----15^----15^----15^----15^r13----13-13--|
-|---------------------------------------------------------15--------|
-|-------------------------------------------------------------------|
-|-3-26--------------------------------------------------------------|


---------------------------------------|
---------------------------------------|
---------------------------------------|
--15p13-------------------13--15-15----|
-------15p13\11----11-/15--------------|
----------------13---------------------|


-|-18^---16----------------------------------------------------------------|
-|---------18--18--18--18--18--18--18--17--18--17--18--18--18--17--18--18--|
-|-------------------------------------------------------------------------|
-|-------------------------------------------------------------------------|
-|-------------------------------------------------------------------------|
-|-3-33--------------------------------------------------------------------|


--16---13------------|
---------16p13-------|
--------------15\----|
---------------------|
---------------------|
---------------------|


-|-16p13-------16p13-------16p13-------16-16p13-------16-16p13----------|
-|-------16p13-------16p13-------16p13----------16p13----------16p13----|
-|----------------------------------------------------------------------|
-|----------------------------------------------------------------------|
-|----------------------------------------------------------------------|
-|-3-44----------------------*listen to CD for duration and pattern*----|


-|-16^----16^-----16-15--15-------13------------------------------|
-|--------------------------16-16----13--13h16p13-----------------|
-|-----------------------------------------------15p13------------|
-|----------------------------------------------------15p13*****--|
-|----------------------------------------------------------------|
-|-3-52-----------------------------------------------------------|


-|-3-57---------------------------------13-13-------------------------------|
-|---------------------------------------13-13---------------------13-13----|
-|---------------------------------------13-13---------------------13-13----|
-|-----------13-13----13-15-13-15-----------------13-15-13-15-15------------|
-|----11-/15-------15-------------------------------------------------------|
-|-13-----------------------------------------------------------------------|


------------------------------------------------------------|
------------------------------------------------------------|
------------------------------------------------------------|
--15-15p13----------13-----13-----13-----13-----13-----13---|
----------15---13h15--13h15--13h15--13h15--13h15--13h15-----|
------------------------------------------------------------|





Comments


Popular Carlos Santana tabs & chords
Game Of Love Bass Tabs
I Dont Wanna Lose Your Love Chords
Just Feel Better Chords
Black Magic Woman Live Tabs
Foo Foo Tabs
Mothers Daughter Tabs
Samba Pa Ti 1 Tabs
Yaleo Tabs
Changes Ukulele
I Dont Wanna Lose Your Love Ukulele


Song lyrics



↑ Back to top | Tablatures and chords are parodies/interpretations of the original songs. You may use it for private study, scholarship, research or language learning purposes only
© 2014 AZChords.com Contact us | Privacy policy | DMCA | Add/correct tabs | Request tabs | Top 50 tabs