>
 >
Da Le Yaleo

Da Le Yaleo Guitar Tabs

Carlos Santana - Da Le Yaleo chords, tabs, tablatures, lyrics

Guitar lessons | Add/correct | Request | Top 50 tabs Artists:  A B C D E F G H I J K L M N O P Q R S T U V W X Y Z 0-9

Da Le Yaleo Guitar Tabs – Carlos Santana

CD, Sheet music, Poster

Do you like Da Le Yaleo? Share with your friends now
Tabs
Hey, this is my first tab and I picked a really bad choice but oh well sounds good. Let 

-

(DE LA) YALEO
Intro:

Start out with some drums...

Elec. Gtr. 1 (dist.)
-----------------------------10-------|
-------8^10---------10^12---------10--|
--------------------------------------|
--------------------------------------|
--------------------------------------|
--------------------------------------|

-------------10-------------10-----12^10^12-----|
------10/12-------10---12-----------------------|
------------------------------------------------|
------------------------------------------------|
------------------------------------------------|
------------------------------------------------|

Keybd. (written out for guitar)
-----------------------------5------------------|
------7----------------------5------------------|
------7----------------------7------------------|
------5-----------------------------------------|
------7----------------------7------------------|
------------------------------------------------|

Piano (written out for guitar)
Rhy. Fig. 1

--5--5---5---5---5--------------------------------|
--7--7---7---7---7---5-----5---3--3---3---3---3---|
--7--7---7---7---7---6-----6---4--4---4---4---4---|
--9--9---9---9---9---7--7--7---5--5---5---5---5---|
--------------------------------------------------|
--------------------------------------------------|

----------5--5---5---5------------------------------|
---5------7--7---7---7----5-----5--3---3--3---3---3-|
---6------7--7---7---7----6-----6--4---4--4---4---4-|
---7------9--9---9---9----7--7--7--5---5--5---5---5-|
----------------------------------------------------|
----------------------------------------------------|

-----------------------------|
--5-----5--------------------|
--6-----6    End Rhy. Fig. 1-|
--7--7--7--------------------|
-----------------------------|
-----------------------------|

With Rhy Fig. 1
Deja ja ya mig sin ella no somona.
Deja ya migo sin ella no somona.      X2

Rhy Fig. 2
Piano (written for guitar)

---------------------------------------------------------|
--7--7----7----7----7----5-----5---3--3---3---3---3------|
--7--7----7----7----7----6-----6---4--4---4---4---4------|
--9--9----9----9----9----7--7--7---5--5---5---5---5------|
---------------------------------------------------------|
---------------------------------------------------------|

---------------------------------------------------------|
---5--------5---7---7----7-----5-------5---3--3----3---3-|
---6--------6---7---7----7-----6-------6---4--4----4---4-|
---7----7---7---9---9----9-----7---7---7---5--5----5---5-|
---------------------------------------------------------|
---------------------------------------------------------|

------------------------------------|
---5-------5------------------------|
---6-------6------------------------|
---7---7---7         End Rhy fig. 2-|
------------------------------------|
------------------------------------|

[With Rhy Fig. 2]
Tika n'gai wa yo, simba n'gai wa yo yaya.
Tika n'gai wa yo, simba n'gai wa yo yaya.     X2

Verse 1:
[With Rhy Fig. 3]
Yo la vi cantando en Paris.
Ella quiso estar junto de mi.
Yo me sorprendi cuando dijo
Yaleo.


Elec. Gtr. 1
--------------------------------------------|
-------------------------------12--11\------|
--------------------------------------12/14-|
-----------12^14-----------14---------------|
----12^14--------------14-------------------|
--------------------------------------------|

--------------------------------------|
--------------------12----------------|
------------------12---12----14-12----|
-------------12-14--------14-------14-|
-----10-12-14-------------------------|
--12----------------------------------|

Rhy Fig. 3
Piano (written for guitar)

---7---------------------------------------------|
---8------------3--3---2-------------2-----0---0-|
---9------------4--4---2----4--------2-----0---0-|
---9------------2--2--------5-----2-----2--2---2-|
---7---------------------------------------------|
-------------------------------------------------|

------------------------------------------------0--|
--3--3---2---0-----0-----------------------3-------|
--4--4---2---0-----0----5-------------5------------|
--2--2-------------2----5------------5-------------|
------------------------3--------------------------|
---------------------------------------------------|

--------------------------------|
--------------------3----8----8-|
--2-----2-----------2----8----8-|   End Rhy Fig 3
--4-----4-----------4----7----7-|
--5-----5-----------2-----------|
-------------------------7----7-|
Verse 2:
[With Rhy Fig. 3]

Vamos caminando elyslee
Tomando vino y partiendo pan.
Ella dijo dame, dame, ya,
Yaleo, Yaleo.

-------------------------------------------------------|
-----10/12---------------------------------------10/12-|
----------14-12-------------------------11/12^14-------|
---------------14-14--(14)^12-------X-14---------------|
-------------------------------12/14-------------------|
-------------------------------------------------------|

--------------------------------------------------------|
---10/12-----------------10/12----15--------------------|
-----------12/14-----------------14---------------------|
--------------------------------------------------------|
--------------------------------------------------------|
--------------------------------------------------------|
    tremolo~~~~~~~~~~~~~~~~~~~~~~~~~~
----12(15)-------12(15)---12(15)12\---------------|
--------------------------------------------------|
--------------------------------------------------|
--------------------------------------------------|
--------------------------------------------------|
--------------------------------------------------|


Chorus:
[With Rhy Fig. 2 X4]

Yaleo,
Yaleo,
Yaleo.
Yaleo.
Tika n'gai wa yo, simba n'gai wa yo ya ya.
Tika n'gai wa yo, simba n'gai wa yo ya ya.
Tika n'gai wa yo, simba n'gai wa yo ya ya.
Tika n'gai wa yo, simba n'gai wa yo ya ya.

       w/wa wa
----------------------------------------------------------|
---12---x-x--x--x--x--x-12-12---x--x----12----------------|
---12---x-x--x--x--x--x-12-12---x--x----12------------14b-|
---12---x-x--x--x--x--x-12-12---x--x--------14----12------|
-----------------------------------------------14---------|
----------------------------------------------------------|

------------------------------------------------------------|
--14-12------12----------12-------12------------12---12--12-|
--------14---12----------12-------12------------12---12-----|
-------------12---14-12----------------14---14--12---12-----|
------------------------------------------------------------|
------------------------------------------------------------|

-------------------------------------------------------------|
--15-----15---15------------12----------------------------12-|
-------------------------------14b14--12------14--12--12--12-|
------------------------------------------14-----------------|
-------------------------------------------------------------|
-------------------------------------------------------------|

----------------------x---x-15b15^12---12--12--12--12--15^12---|
-----------12---12---------------------------------------------|
-----------12---12-----------------------------------------14--|b
--------x------------------------------------------------------|
---------------------------------------------------------------|
---------------------------------------------------------------|

----------------------------------------------------------------|
-----------------12---12---x--x--12------12--14^12-----12--x--x-|
----14^12--------12---12---x--x--12--14--12--14^12-----12--x--x-|
----------14^12----------------------14-------------14----------|
----------------------------------------------------------------|
----------------------------------------------------------------|

--12--12--12-12---12--12--12---12--15^12---------------12------|
--15b-15--15b-----15b-----15b--------------------------12------|
-----------------------------------------14^12-----12----------|
------------------------------------------------14-------------|
---------------------------------------------------------------|
---------------------------------------------------------------|

-------------------------------------------------------------------|
---x--x--x--x--x--x--x--x--x-----12------12----12--12--------------|
------------------------------14---12----12----12--12----14b14--12-|
-------------------------------------14----------------------------|
-------------------------------------------------------------------|
-------------------------------------------------------------------|

--------------------------------------------------------------------|
-------------------12--x------------12---x--x-----------x---12----x-|
-------14--12------12--x------------12---x--x--14^12----x---12----x-|
----14--------14---------x--x--x--x------------------x--------------|
--------------------------------------------------------------------|
--------------------------------------------------------------------|

-------------------------------12--------------------------12-12---12-|
-------------------------------12--x-x-x-x-x-x-----x-------12-12---12-|
--14b--12--14----12-14-12------12--x-x-x-x-x-x-----x-------12-12---12-|
--------------------------14--------------------x-----x-x-------------|
----------------------------------------------------------------------|
----------------------------------------------------------------------|

----12---12-------12-12-12----------------------------------------------|
----12---12---11--12-12-12--14^12--------12--x-x-x--12-12--12-12--x-x-x-|
----12---12---11--12-12-12--14^12-14^12--12--x-x-x--12-12--12-12--x-x-x-|
----------------------------------14^12---------------------------------|
------------------------------------------------------------------------|
------------------------------------------------------------------------|

--12--12---12--12---------------------------------------------------------|
--15b------15----15--12---------------------------------------------------|
------------------------14b14-12---14^12----------------------------------|
---------------------------------14-----14--------12---------------5--7/9-|
------------------------------------------12-12^14---12---------5-7-------|
----------------------------------------------------------0--5/7----------|


Verse 3:
[With Rhy Fig. 3}

Si tu pudieras, decirme a mi, yo no lo creo lo que pasa aqui.
Ella es mia y me da su amor.
Estoy completo y soy feliz.
Ahora tengo ninos que dicen
Yaleo,
Yaleo.

[To Chorus]

[Piano Solo]

---------------|
---12----------|
---------------|
---------------|
---------------|
---------------|

Guitar Solo:
Gtr. 1

-------------------------------------------------------------|
--12-----------------------------15--12^15^12-----13-12------|
------------12----------------14------------------------12---|
--------------12^14--12----15-----------------------------14-|
-------------------------------------------------------------|
-------------------------------------------------------------|

-----------------------------------------------------------------------|
-------------------------------12----12---13--12--------------------12-|
-----------------------------------14-----------12-----------12--14----|
--12^14^12\10^12----12----/14---------------------14--12--15-----------|
--------------------------/14------------------------------------------|
-----------------------------------------------------------------------|
                              tremolo~~~~~~~~~~~               ~~~~~~~
-------------------------12------15-15---15----15----15-14-12--15--15--|
-----12-13-13-13-15-15-15--------15------------------------------------|
-----------------------------------------------------------------------|
-----------------------------------------------------------------------|
-----------------------------------------------------------------------|
-----------------------------------------------------------------------|

----15--14-12\---------------0------------------------------------------|
-----------------------------0--0---------------------------------------|
----------------------------------2b---2---------2--2--2--2--2--2--2--2-|
------------------------------------------------------------------------|
------------------------------------------------------------------------|
------------------------------------------------------------------------|

------------------0-------19b---19------19--19----19--19----19--19------|
------------------0-----------------19b--------19--------19-------------|
--2^0-2b---2^0----------------------------------------------------------|
-----------------2------------------------------------------------------|
------------------------------------------------------------------------|
------------------------------------------------------------------------|

-----19--19----19--19---19----19--19------19--19----19\---0----22b-22b--22b-|
--19---------19-------19--------19-----19-----------------0-----------------|
----------------------------------------------------------------------------|
----------------------------------------------------------------------------|
----------------------------------------------------------------------------|
----------------------------------------------------------------------------|

---22b\-----22b-22b-22b--22b\----22b-22b--2b---22b---22b--22b-22b--22b--|
------------------------------------------------------------------------|
------------------------------------------------------------------------|
------------------------------------------------------------------------|
------------------------------------------------------------------------|
------------------------------------------------------------------------|

---22b--22--22--22b--22--22-22b-22--22-22b--22---22--22b--22-22-22b\----|
------------------------------------------------------------------------|
------------------------------------------------------------------------|
------------------------------------------------------------------------|
------------------------------------------------------------------------|
------------------------------------------------------------------------|
       trem.~~~~~~
---24b----24-24-24-------24\----15---------0-----------------|
-------------------------------------------0-----------------|
--------------------------------12---12----0-----------------|
-------------------------------------------------------------|
-------------------------------------------------------------|
---------------------------------------------------------12\-|

------------------------------------------------------------------|
------------------------------------------------------------12\---|
------------------------------------------------------------12\---|
------------------------------------------------------------12\---|
-------7-7-------------7-----------7-7------------7-7-------------|
--0---7---------------7---7--0---7----------0----7----------------|


Chorus:
[w/Rhy. Fig. 2 X7.5]

----/12\----/10--9--7----------------7--7---7---7--7-10--9--7-|
------------/8---7--5-----------------------------------------|
----/9\------------------------------4--4---4---4--4-7---6--4-|
--------------------------------------------------------------|
--------------------------------------------------------------|
--------------------------------------------------------------|

---------------12------------------------------------------------------|
--------15b-----15-12--------------------------------------------------|
-----------------------14b--14-12--------------------------------14-12-|
---------------------------------14--14--14-14--14-------------14------|
--------------------------------------------------14--x-12--14---------|
-----------------------------------------------------------------------|

-----------------------------12----------------------------------------|
-----------------------12-15----12-------------------------------------|
--------------12-12-----------------14--12---------------------12---12-|
---14-14-14--------------------------------14--14--------------12---12-|
----------------------------------------------------x--x--x--x---------|
-----------------------------------------------------------------------|

-------------------------17b--15-17b----15-------------------15---------|
-------------------------------------------17---17----17---17-----15-12-|
--12-12--14-------16--14------------------------------------------------|
--12-12--14-------16--14------------------------------------------------|
------------------------------------------------------------------------|
------------------------------------------------------------------------|

---------------------------------------------------------------12-------|
----------------12---------------------------12----------12^15----12^15-|
--14b^12----14--12---------------------------12-12----------------------|
---------14--------14-14-14--14-14--------x-------14--------------------|
-----------------------------------x-x-x-x------------------------------|
------------------------------------------------------------------------|

--12---------------------------------------------------------------------|
------15^12--------------------------------------------------12--12------|
-------------14^12--14^12--14---14-------------------x--12-14--------14b-|
---------------------------14---14---14--14-14-14--x---------------------|
-------------------------------------------------------------------------|
-------------------------------------------------------------------------|

--------------------------------------------------------------------------|
--------------------------------------------------x-----------------------|
-----14^12------14^12-----------------------12------x-x--14b-14--14b--14b-|
-----------14-14-------14-14--------x-x-x-x----14-------------------------|
------------------------------12^14---------------------------------------|
--------------------------------------------------------------------------|

---------------------------------------------------|
--------------------------------------------12-----|
---14b--14b--14b--14b--14b14--14--14^12^14----12---|
------------------------------------------------14-|
---------------------------------------------------|
---------------------------------------------------|

THE END

Again, folks, let me know if there's a mistake or just what you think
-Kaleb





Comments


Popular Carlos Santana tabs & chords
Daughter Of The Night Chords
Just Feel Better Chords
Why Dont You And I Chords
Why Dont You And I 1 Chords
Bella 1 Tabs
Black Magic Woman 4 Tabs
Guajira Tabs
Hope Youre Feeling Better 1 Tabs
Love Of My Life Intro Tabs
Migra Tabs


Song lyrics



↑ Back to top | Tablatures and chords are parodies/interpretations of the original songs. You may use it for private study, scholarship, research or language learning purposes only
© 2014 AZChords.com Contact us | Privacy policy | DMCA | Add/correct tabs | Request tabs | Top 50 tabs