» » »

Carlos Santana, Corazon Espinado Bass tabs (ver.1)

Artists:  A B C D E F G H I J K L M N O P Q R S T U V W X Y Z # 

Corazon Espinado Bass tabs (ver.1)

Carlos Santana Tabs
 Rating:
4/5 (5 votes)
Corazon Espinado lessons Tabs too difficult? Try these video lessons and learn fast
                Corazon Espinado.btab
Santana
TablEdited by Poppamies
Tuning : E A D G 	Time Signature: 4/4

 tempo 120       |       |        |       |       |       |        
|--------------------------------|--------------------------------|
|------3 bars without bass-------|------------------------4/--3---|
|--------------------------------|--------------------------------|
|--------------------------------|--------------------------------|

 |       |       |       |        |       |       |       |        
|--------------------------------|--------------------------------|
|------------0---0---------------|--------------------------------|
|2-------------------------------|------------2---4-------2---4---|
|------------------------2---2---|--------------------------------|

 |       |       |       |        |       |       |       |        
|--------------------------------|--------------------------------|
|------------0---0---------------|--------------------------------|
|2-------------------------------|------------2---4-------2---4---|
|------------------------2---2---|--------------------------------|

 |       |       |       |        |       |       |       |        
|--------------------------------|--------------------------------|
|------------0---0---------------|--------------------------------|
|2-------------------------------|------------2---4-------2---4---|
|------------------------2---2---|--------------------------------|

 |       |       |       |        |       |       |       |        
|--------------------------------|--------------------------------|
|------------0---0---------------|--------------------------------|
|2-------------------------------|------------2---4---4---2---4---|
|------------------------2---2---|--------------------------------|

 Esa mujer       |       |        me esta matando...      |        
|--------------------------------|--------------------------------|
|------------0-------------------|--------------------------------|
|2-------------------------------|------------2---4-------2---4---|
|------------------------2---2---|--------------------------------|

 |       |       |       |        |       |       |       |        
|--------------------------------|--------------------------------|
|------------0-------------------|--------------------------------|
|2-------------------------------|------------2---4-------2---4---|
|------------------------2---2---|--------------------------------|

 |       |       |       |        |       |       |       |        
|--------------------------------|--------------------------------|
|------------0-------------------|--------------------------------|
|2-------------------------------|------------2---4-------2---4---|
|------------------------2---2---|--------------------------------|

 |       |       |       |        |       |       |       |        
|--------------------------------|--------------------------------|
|------------0-------------------|--------------------------------|
|2-------------------------------|------------2---4-------2---4---|
|------------------------2---2---|--------------------------------|

 Mi corazon aplastado... |        |       |       |       |        
|--------------------------------|--------------------------------|
|------------0-------------------|--------------------------------|
|2-------------------------------|------------2---4-------2---4---|
|------------------------2---2---|--------------------------------|

 |       |       |       |        |       |       |       |        
|--------------------------------|--------------------------------|
|------------0-------------------|--------------------------------|
|2-------------------------------|------------2---4-------2---4---|
|------------------------2---2---|--------------------------------|

 |       |       |       |        |       |       |       |        
|--------------------------------|--------------------------------|
|------------0-------------------|--------------------------------|
|2-------------------------------|------------2---4-------2---4---|
|------------------------2---2---|--------------------------------|

 |       |       |       |        |       |       |       |        
|--------------------------------|--------------------------------|
|------------0-------------------|--------------------------------|
|2-------------------------------|------------2---4-------2---4---|
|------------------------2---2---|--------------------------------|

 Ah ah ay...     |       |        corazon espinado|       |        
|--------------------------------|--------------------------------|
|------------0---0---------------|--------------------------------|
|2-------------------------------|------------2---4-------2---4---|
|------------------------2---2---|--------------------------------|

 |       |       |       |        |       |       |       |        
|--------------------------------|--------------------------------|
|------------0---0---------------|--------------------------------|
|2-------------------------------|------------2---4-------2---4---|
|------------------------2---2---|--------------------------------|

 |       |       |       |        |       |       |       |        
|--------------------------------|--------------------------------|
|------------0---0---------------|--------------------------------|
|2-------------------------------|------------2---4-------2---4---|
|------------------------2---2---|--------------------------------|

 |       |       |       |        |       |       |       |        
|--------------------------------|--------------------------------|
|------------0---0---------------|--------------------------------|
|2-------------------------------|------------2---4-------2---4---|
|------------------------2---2---|--------------------------------|

 |       Como duele...   |        |       |       |       |        
|--------------------------------|--------------------------------|
|------------0---0---------------|--------------------------------|
|2-------------------------------|------------2---4-------2---4---|
|------------------------2---2---|--------------------------------|

 |       |       |       |        |       |       |       |        
|--------------------------------|--------------------------------|
|------------0---0---------------|--------------------------------|
|2-------------------------------|------------2---4-------2---4---|
|------------------------2---2---|--------------------------------|


 |       |       |       |        |       |       |       |        
|--------------------------------|--------------------------------|
|------------------       and so on until      -------------------|
|--------------------------------|--------------------------------|
|--------------------------------|--------------------------------|

 Ah ah ay...     |       |        como me duele el|amor   |        
|--------------------------------|--------------------------------|
|------------0---0---------------|--------------------------------|
|2-------------------------------|------------2---4-------2---4---|
|------------------------2---2---|--------------------------------|

 |       |       |       |        |       |       |       |        
|--------------------------------|--------------------------------|
|------------0-------------------|--------------------------------|
|2-------------------------------|--------------------------------|
|------------------------2---2---|--------------------------------|

 |       |       |       |        |       |       |       |        
|--------------------------------|--------------------------------|
|--------------------0-----------|----------------4-------4/--0---|
|2---2---2---------------2---4---|--------1---4-------------------|
|--------------------------------|----2---------------------------|

 S O L O |       |       |        |       |       |       |        
|--------------------------------|--------------------------------|
|------------0---0---------------|--------------------------------|
|2-------------------------------|------------2---4-------2---4---|
|------------------------2---2---|--------------------------------|

 |       |       |       |        |       |       |       |        
|--------------------------------|--------------------------------|
|------------0---0---------------|--------------------------------|
|2-------------------------------|------------2---4-------2---4---|
|------------------------2---2---|--------------------------------|

 |       |       |       |        |       |       |       |        
|--------------------------------|--------------------------------|
|------------0---0---------------|--------------------------------|
|2-------------------------------|------------2---4-------2---4---|
|------------------------2---2---|--------------------------------|

 |       |       |       |        |       |       |       |        
|--------------------------------|--------------------------------|
|------------0---0---------------|------------4---4-------2---0---|
|2-------------------------------|--------1-----------------------|
|------------------------2---2---|----2---------------------------|

 |       |       |       |        |       |       |       |        
|--------------------------------|--------------------------------|
|------------0---0---------------|--------------------------------|
|2-------------------------------|------------2---4-------2---4---|
|------------------------2---2---|--------------------------------|

 |       |       |       |        |       |       |       |        
|--------------------------------|--------------------------------|
|------------0---0---------------|--------------------------------|
|2-------------------------------|------------2---4-------2---4---|
|------------------------2---2---|--------------------------------|

 |       |       |       |        |       |       |       |        
|--------------------------------|--------------------------------|
|------------0---0---------------|--------------------------------|
|2-------------------------------|------------2---4-------2---4---|
|------------------------2---2---|--------------------------------|

 |       |       |       |        |       |       |       |        
|--------------------------------|--------------------------------|
|------------0---0---------------|------------4---2---2---0-------|
|2-------------------------------|--------1-----------------------|
|------------------------2---2---|----2---------------------------|

 |       |       Como me |        duele el|olvido...      |        
|------------0---0---------------|------------0---0-------4-------|
|2-----------------------2---2---|2-------------------------------|
|--------------------------------|--------------------------------|
|--------------------------------|--------------------------------|

 |       |       |       |        |       |       |       |        
|--------------------------------|--------------------------------|
|------------0---0---------------|------------0---0-------4-------|
|2-----------------------2---2---|--------------------------------|
|--------------------------------|--------------------------------|

 |       |       |       |        |       |       |       |        
|------------0-------------------|------------0---0-------4-------|
|2-----------------------2---2---|--------------------------------|
|--------------------------------|--------------------------------|
|--------------------------------|--------------------------------|

 |       |       |       |        |       |       |       |        
|--------------------------------|--------------------------------|
|------------0-------------------|--------------------2-----------|
|2-----------------------2---2---|------------0---2-------4-------|
|--------------------------------|--------------------------------|

 |       |       Como me |        duele estar vivo...     |        
|------------2---2---------------|------------------------2-------|
|0-----------------------0---0---|------------4---4---------------|
|--------------------------------|--------------------------------|
|--------------------------------|--------------------------------|

 |       |       |       |        |       |       |       |        
|--------------------------------|--------------------------------|
|--------------------------------|------------------------2-------|
|0-----------4---4-------0---0---|------------4---4---------------|
|--------------------------------|--------------------------------|

 |       |       |       |        |       |       |       |        
|------------0---0---------------|------------0---0-------4/--3---|
|2-----------------------2---2---|--------------------------------|
|--------------------------------|--------------------------------|
|--------------------------------|--------------------------------|

 |       |       |       |        Corazon espinado...     |        
|--------------------------------|--------------------------------|
|--------------------------------|--------------------------------|
|--------------------------------|--------------------------------|
|2---2-------2---2-------2---2---|--------------------------------|

 |       |       |       |        |       |       |       |        
|--------------------------------|--------------------------------|
|------------0---0---------------|--------------------------------|
|2-------------------------------|------------2---4-------2---4---|
|------------------------2---2---|--------------------------------|

 |       |       |       |        |       |       |       |        
|--------------------------------|--------------------------------|
|------------0---0---------------|--------------------------------|
|2-------------------------------|------------2---4-------2---4---|
|------------------------2---2---|--------   and so on...  -------|
            
Submit corrections

comments powered by Disqus
↑ Back to top | Carlos Santana Bass for Corazon Espinado. Lyrics for acoustic guitar and electric guitar. Tablatures and chords are parodies/interpretations of the original songs. You may use it for private study, scholarship, research or language learning purposes only