>
 >
Con Santana

Con Santana Guitar Tabs

Carlos Santana - Con Santana chords, tabs, tablatures, lyrics

Guitar lessons | Add/correct | Request | Top 50 tabs Artists:  A B C D E F G H I J K L M N O P Q R S T U V W X Y Z 0-9

Con Santana Guitar Tabs – Carlos Santana

CD, Sheet music, Poster

Do you like Con Santana? Share with your friends now
Tabs
-------------------------------------------------------------------------------
			     SONG NAME – Con Santana
ALBUM – All That I Am
-------------------------------------------------------------------------------

Just something I’ve been learning and thought I would share since it is not 
posted. I made this as readable as I could for everyone. I posted the timelime of 
the song above the part being tabbed. Even though I can’t play the solo at normal 
speed, only 85% speed so far, this is my first song I have tabbed on a file. I 
have been playing for 3 years almost, but all I have is a 200 dollar squier 
close to professional equipment, I would really appreciate it so I can hear what 
it sounds like. Thanks and I hope I made this as accurate as possible.

Tuning: Standard
************************************

| /   slide up
| \   slide down
| h   hammer-on
| p   pull-off
| ~   vibrato
| +   harmonic
| x   Mute note
| b   Bend
| pb  Pre-bend
| br  Bend release
| pbr Pre-bend release
| brb Bend release bend
| >   Pick constantly
************************************

*********00:04-00:08**********************00:11–00:13********************	
e|-------------------------------------------------12-11-11~h12--------------|
B|------------12--------------------------14-14-14---------------------------|
G|--14\----------13-11--------------------13---------------------------------|
D|--12\----------------14-14~/16----------11---------------------------------|
A|---------------------------------------------------------------------------|
E|---------------------------------------------------------------------------|
***********00:15–00:17********************00:20–00:21********************
e|-12-12--12-12-14-----------------------------------------------------------|
B|------------------14-14-14~p12-----------14-------14-----------------------|
G|-----------------------------h13------------13-16--------------------------|
D|---------------------------------------------------------------------------|
A|---------------------------------------------------------------------------|
E|---------------------------------------------------------------------------|
*********00:22–00:23***********************00:24–00:27*******************
e|-------------------------------------------------11/12-11~-----------------|
B|--14-------14--14--14--14~--------14-------14-------------14-------14~~\---|
G|-----13-16-----------------16--------13-16-------------------13-16---------|
D|---------------------------------------------------------------------------|
A|---------------------------------------------------------------------------|
E|---------------------------------------------------------------------------|
*******************00:31–00:35*********************************************
e|---------------------------------------------------------------------------|
B|----------------10-12-10---------------------------------------------------|
G|--11/13~~-11-13----------13-11----11-13\11/13~~----------------------------|
D|-------------------------------14------------------------------------------|
A|---------------------------------------------------------------------------|
E|---------------------------------------------------------------------------|
*******************00:38–00:42*********************************************
e|-------------16------------------15/16-------------------------------------|
B|--19-19~-19----19-17---19-19~-19-------19-17~\-----------------------------|
G|---------------------------------------------------------------------------|
D|---------------------------------------------------------------------------|
A|---------------------------------------------------------------------------|
E|---------------------------------------------------------------------------|
*******00:43–00:45******************00:47–00:47**************************
e|---------------------------------------------------------------------------|
B|---------------------------------------------------------------------------|
G|---------------------------------------------------------------------------|
D|--9/11--------------------------------------11-11~~\-----------------------|
A|-------10/11-9~~\-------------------9-9/11---------------------------------|
E|---------------------------------12----------------------------------------|
***********00:51-00:53******************************00:54–00:57**********
e|-----------------------------------------------13b15b13--------------------|
B|--------------------------------------------------------14----12-14~-------|
G|-------------11/13--11-11~/13\11~--------------------------13--------------|
D|--7/11-13-14---------------------------------------------------------------|
A|---------------------------------------------------------------------------|
E|---------------------------------------------------------------------------|
*********00:58–01:00****************01:01–01:04**************************
e|-------------9-------------------------------------------------------------|
B|--------9-10----10~-9-------------------------14-14~h17--------------------|
G|--10-11------------------------------------13------------------------------|
D|----------------------------------13-14-16---------------------------------|
A|---------------------------------------------------------------------------|
E|---------------------------------------------------------------------------|
****************01:05–01:07************************01:10–01:12***********
e|---------------------------------------------------------------------------|
B|-----17-19-19--17--19p17-19br21-19~p17-------------------------------------|
G|--18-----------------------------------------------------------------------|
D|-------------------------------------------------14-13-----------11~\------|
A|-------------------------------------------------------14--11-14-----------|
E|---------------------------------------------------------------------------|
******************01:16–01:19**********************************************
e|-----------------------9--------------------9~~----------------------------|
B|--12-12--12-12-12br14-----12-12--12-12br14---------------------------------|
G|---------------------------------------------------------------------------|
D|---------------------------------------------------------------------------|
A|---------------------------------------------------------------------------|
E|---------------------------------------------------------------------------|
***************************01:23–01:28*************************************
e|------------16-------------------16----16--16-16-16--16-16-16\-------------|
B|--19-19~-19----19-17---19-19~-19----19---------------17-17-17\-------------|
G|---------------------------------------------------------------------------|
D|---------------------------------------------------------------------------|
A|---------------------------------------------------------------------------|
E|---------------------------------------------------------------------------|
**********01:29–01:32***********************01:33–01:35******************
e|---------------------------------------------------------------------------|
B|---------------------------------------------------------------------------|
G|--------------12/13--11-11~~-----------8-9-11-9-11b13b11-------9-----------|
D|--11-13-14-11--------------------------------------------11-11-------------|
A|---------------------------------------------------------------------------|
E|---------------------------------------------------------------------------|
************01:37–01:39***********************01:39–01:43****************
e|--11-----------------------------------------------------------------------|
B|--12---10-----------------------------------------------------------14~~---|
G|----------13-11-9----11b13b11~~--------16----16--16-16-16-16-16--16--------|
D|------------------11-------------------------------------------------------|
A|---------------------------------------bend-gradually-to-fret-tone-18------|
E|--------------------------------------------from-16------------------------|
***********01:44–01:47*****************************************************		
e|---------------------------------------------------------------------------|
B|--18br19-18br19-18br19-17-19-----------------------------------------------|
G|---------------------------------------------------------------------------|
D|---------------------------------------------------------------------------|
A|---------------------------------------------------------------------------|
E|---------------------------------------------------------------------------|
**********************01:47–01:50******************************************
e|------------------------------------16-------------------------------------|
B|----18-19-19-18-19-18-19-18-19-18-19---19-18-19----------------------------|
G|--17-----------------------------------------------------------------------|
D|---------------------------------------------------------------------------|
A|---------------------------------------------------------------------------|
E|---------------------------------------------------------------------------|
***************01:51–01:54*************************01:55–01:57***********
e|--19--17-------------------------------------------------------------------|
B|---------21-19-17-19-21-17--21p19~\--------------17-16-----------14~-------|
G|-------------------------------------------------------16--13-16-----------|
D|---------------------------------------------------------------------------|
A|---------------------------------------------------------------------------|
E|---------------------------------------------------------------------------|
*************01:58–02:01***************************************************			
e|---------------------------------------------------------------------------|
B|---------------------------------------------------------------------------|
G|--16br18~--16-13--------------13~~-----------------------------------------|
D|-----------------16-14-16br18----------------------------------------------|
A|---------------------------------------------------------------------------|
E|---------------------------------------------------------------------------|
**************************02:02–02:05**************************************
e|---------------------------------------------------------------------------|
B|---------------------------------------------------------------------------|
G|--16br18-16br8-16-13----------------13----------------13-------------------|
D|---------------------16b18b16-14-------16b18b16-14-16----14~~\5/16\--------|
A|---------------------------------16----------------------------------------|
E|---------------------------------------------------------------------------|
******************************02:06–02:09**********************************
e|--13b15b13---13b15b13--13b15b13-13b15b13-------12-11-----------------------|
B|-----------------------------------------14-----------14-14~\--------------|
G|--------------------------------------------13-----------------------------|
D|---------------------------------------------------------------------------|
A|---------------------------------------------------------------------------|
E|---------------------------------------------------------------------------|
*****************************02:10–02:14***********************************
e|--1/12-12-14-14-12-14-12-14-12-14b16>>>>b14--------------------------------|
B|---------------------------------------------------------------------------|
G|-------------------------------full-bend-----------------------------------|
D|-------------------------------gradually-----------------------------------|
A|-------------------------------bend-back-to-14-----------------------------|
E|-------------------------------while-picking-------------------------------|
*****************02:14–02:16***********************************************
e|--12-12-11-11--------------------------------------------------------------|
B|--------------14-12--------------------------------------------------------|
G|--------------------14-13-11----------11-----------------------------------|
D|-----------------------------14-11-14--------------------------------------|
A|---------------------------------------------------------------------------|
E|---------------------------------------------------------------------------|
**************************02:16–02:20**************************************
e|---------------------------------------------------------------------------|
B|-------------------------------------------------11-14\12/14---------------|
G|--9h11p9h11p9------------------------------11-13---------------------------|
D|--------------11p9-------------------10-13---------------------------------|
A|-------------------11-9--------10-11---------------------------------------|
E|------------------------12/14----------------------------------------------|
********************************02:20–02:23********************************			
e|-----11-11-11-12-12-14--14/16-19-16-19-16-19-16-19-16-19-16-19br21---------|
B|--14-----------------------------------------------------------------------|
G|---------------------------------------------------------------------------|
D|---------------------------------------------------------------------------|
A|---------------------------------------------------------------------------|
E|---------------------------------------------------------------------------|
******************************02:23–02:27**********************************
e|--19b21-21-21-21-21-21--19br21-19br21-19br21-19-16----16-16----------------|
B|---------------------------------------------------19-------17~~\----------|
G|---continue-to-pick--------------------------------------------------------|
D|----5-times-at-note--------------------------------------------------------|
A|----bend-21----------------------------------------------------------------|
E|---------------------------------------------------------------------------|
****************02:46–02:50************************************************
e|---------------------------------------------------------------------------|
B|----------------10-12-10---------------------------------------------------|
G|--11/13~~-11-13----------13-11----11-13\11/13~~----------------------------|
D|-------------------------------14------------------------------------------|
A|---------------------------------------------------------------------------|
E|---------------------------------------------------------------------------|
*****************02:53–02:57***********************************************
e|-----------------------9--------------------9~~----------------------------|
B|--12-12--12--12—12br14-----12-12--12—12br14--------------------------------|
G|---------------------------------------------------------------------------|
D|---------------------------------------------------------------------------|
A|---------------------------------------------------------------------------|
E|---------------------------------------------------------------------------|
***********************03:01–03:04*****************************************
e|---------------------------------------------------------------------------|
B|--17b19-19-19-19-19-19-19b17-16-16b17b16-14-------14~~\--------------------|
G|--------------------------------------------13-16--------------------------|
D|---------------------------------------------------------------------------|
A|---------------------------------------------------------------------------|
E|---------------------------------------------------------------------------|
*************03:12–03:16***************************************************
e|-------------16------------------16----16\---------------------------------|
B|--19-19~-19----19-17---19-19~-19----19-------------------------------------|
G|---------------------------------------------------------------------------|
D|---------------------------------------------------------------------------|
A|---------------------------------------------------------------------------|
E|---------------------------------------------------------------------------|





Comments


Popular Carlos Santana tabs & chords
Africa Bamba Chords
Bailando Aquatic Park Tabs
Black Magic Woman Tabs
Hold On Tabs
Incident At Neshabur Tabs
Just Feel Better 2 Tabs
Life Is A Lady Tabs
Open Invitation Tabs
Smooth Tabs
Just Feel Better Ukulele


Song lyrics



↑ Back to top | Tablatures and chords are parodies/interpretations of the original songs. You may use it for private study, scholarship, research or language learning purposes only
© 2014 AZChords.com Contact us | Privacy policy | DMCA | Add/correct tabs | Request tabs | Top 50 tabs