>
 >
Black Magic Woman 4

Black Magic Woman 4 Guitar Tabs

Carlos Santana - Black Magic Woman 4 chords, tabs, tablatures, lyrics

Guitar lessons | Add/correct | Request | Top 50 tabs Artists:  A B C D E F G H I J K L M N O P Q R S T U V W X Y Z 0-9

Black Magic Woman 4 Guitar Tabs – Carlos Santana

CD, Sheet music, Poster

Do you like Black Magic Woman 4? Share with your friends now
Bass TabsBass Tabs v2ChordsTabsTabs v2Tabs v3Tabs v4Ukulele
-------------------------------------------------------------------------------
                             Black Magic Woman - Santana
-------------------------------------------------------------------------------

Tuning: Standard

Quick note: if it says 13b15p10 then play 13, bend to 15, then bend back to 13 and pull 
to 10.  It's kind of confusing to say 13b15b13p10 instead of 13b15p10
intro/solo#1
e|--------|-----------|----------|-----------|-------------|------------|
B|-8p6----|--7s9s7----|-6h8p6----|-8---------|-10--8--6s5--|-8--6--5s3--|
G|--------|-----------|----------|----7s9s7--|-------------|------------|
D|--------|-----------|----------|-----------|-------------|------------|
A|--------|-----------|----------|-----------|-------------|------------|
E|--------|-----------|----------|-----------|-------------|------------|

e|-------------|--------|-----------------10--|
B|-10--8--6s5--|--8-6-5-|--------------10-----|
G|-------------|--------|----------10---------|
D|-------------|--------|-------12------------|
A|-------------|--------|----12---------------|
E|-------------|--------|-10------------------|

e|------------------------|-----|-------10------------------|-------|
B|--13b--13-13b15p10-13b15|-p10-|-13b15----13-10------------|-------|
G|------------------------|-----|----------------12-12b14-10|-p9----|
D|------------------------|-----|---------------------------|-------|
A|------------------------|-----|---------------------------|-------|
E|------------------------|-----|---------------------------|-------|

e|------------12h13-12-|-13p12p10-------------------|-------10----------------|
B|------10-13----------|----------13b15b13b15b13p10-|-13b15----13-10----------|
G|-9s10----------------|----------------------------|----------------12b14p10-|
D|---------------------|----------------------------|-------------------------|
A|---------------------|----------------------------|-------------------------|
E|----------------------------------------------------------------------------|

e|-------10-12-13b15--15b17p13----13|-17b18s10-|------------------------------|
B|----11-----------------------15---|----------|----------------10------------|
G|-12-------------------------------|----------|-12b14b12p10h12---12-10h12p10-|
D|----------------------------------|----------|------------------------------|
A|----------------------------------|----------|------------------------------|
E|----------------------------------|----------|------------------------------|

e|-------------------------|-10---|
B|-------------------------|-10---|
G|-------------------------|-10---|
D|-12-10-12--10------------|-12---|
A|--------------12-11-10s8-|-12---|
E|-------------------------|-10---|

Solo#2

e|-------10-------------|----------|-13p12p10------------------------|
B|-13b15----13b15b13b15-|-13b15p10-|----------13b15p10---------------|
G|----------------------|----------|-------------------12b14b12-10s9-|
D|----------------------|----------|---------------------------------|
A|----------------------|----------|---------------------------------|
E|----------------------|----------|---------------------------------|

                                                     Here bend, pause, bend, pull off
e|------------|-12h13p12p10-------|-13b15---15b17p13-|-15b16b17p13-|
B|------10-13-|-------------13b15-|------------------|-------------|
G|-9s10-------|-------------------|------------------|-------------|
D|------------|-------------------|------------------|-------------|
A|------------|-------------------|------------------|-------------|
E|------------|-------------------|------------------|-------------|

e|-18b20---|-12h13p12p10--12h13p12p10-------|-10----------------------|----------------------|
B|---------|--------------------------13b15-|----13p10-------------10-|----10-31p10----------|
G|---------|--------------------------------|----------12b14p10----10-|-------------12b14p10-|
D|---------|--------------------------------|-------------------12----|-12-------------------|
A|---------|--------------------------------|-------------------------|----------------------|
E|---------|--------------------------------|-------------------------|----------------------|

                                                                                Gradual bend
e|-13b15--15b17--13b15-|-------------|-------10---------------------|---------------|
B|---------------------|-12b14b12b14-|-13b15----13-10---------------|------10-13b15-|
G|---------------------|-------------|----------------12-12b14p10s9-|-9s10----------|
D|---------------------|-------------|------------------------------|---------------|
A|---------------------|-------------|------------------------------|---------------|
E|---------------------|-------------|------------------------------|---------------|

e|-10--------------------10-|--------------|----10-12-13b15-15b17-|-18b20--20b22b20b22-|
B|----13b15b13b15b13p10--13-|-10-----------|-11-------------------|--------------------|
G|--------------------------|-10-10-----12-|----------------------|--------------------|
D|--------------------------|--------------|----------------------|--------------------|
A|--------------------------|--------------|----------------------|--------------------|
E|--------------------------|--------------|----------------------|--------------------|

e|-----------------10-|-------10-------10-|-13p10h13p10h13p10-------------------------------|
B|--------------13----|-10-13----10h13----|-------------------13p10h13p10-------------------|
G|-12b14b12b14--------|-------------------|-------------------------------12p10h12p10-------|
D|--------------------|-------------------|-------------------------------------------12-10-|
A|--------------------|-------------------|-------------------------------------------------|
E|--------------------|-------------------|-------------------------------------------------|

e|----------------------|
B|----------------------|
G|----------------9s10--|
D|----------10h12-------|
A|-10h11h12-------------|
E|----------------------|

It's really not that hard.  If you can do the slides and pulloffs in the 10-13 frets 
you can play the whole song.


| /  slide up
| \  slide down
| h  hammer-on
| p  pull-off
| ~  vibrato
| +  harmonic
| x  Mute note
===============================================================================





Comments


Popular Carlos Santana tabs & chords
Black Magic Woman 1 Bass Tabs
Africa Bamba Tabs
Europa 1 Tabs
Feels Like Fire Intro 1 Tabs
Mirage Tabs
Say It Again Tabs
Victory Is Won 2 Tabs
Why Dont You And I Tabs
Why Dont You And I 2 Tabs
You Know That I Love You Ukulele


Song lyrics



↑ Back to top | Tablatures and chords are parodies/interpretations of the original songs. You may use it for private study, scholarship, research or language learning purposes only
© 2014 AZChords.com Contact us | Privacy policy | DMCA | Add/correct tabs | Request tabs | Top 50 tabs