>
 >
Before We Go

Before We Go Guitar Tabs

Carlos Santana - Before We Go chords, tabs, tablatures, lyrics

Guitar lessons | Add/correct | Request | Top 50 tabs Artists:  A B C D E F G H I J K L M N O P Q R S T U V W X Y Z 0-9

Before We Go Guitar Tabs – Carlos Santana

CD, Sheet music, Poster

Do you like Before We Go? Share with your friends now
Tabs
B - A
      e|-14r12----12-14--|
      B|-------14--------|
      G|-----------------|
      D|-----------------|
      A|-----------------|
      E|-----------------|

A - B - C#m
B - A

(Se repite: A - B - C#m)
e|-12b14-12b14-12b14v--12-9----9-------9--------|
B|--------------------------12---12b14---12b14--|
G|----------------------------------------------|
D|----------------------------------------------|
A|----------------------------------------------|
E|----------------------------------------------|

e|-12-9-9-------9---12-11-9----9-------9--|
B|--------12b14---9---------12---12b14----|
G|----------------------------------------|
D|----------------------------------------|
A|----------------------------------------|
E|----------------------------------------|

e|-----------------9----------------------|
B|-14r12-9-------9---12-9-----------------|
G|---------13b11----------13r11-9----11-9-|
D|--------------------------------11------|
A|----------------------------------------|
E|----------------------------------------|


            C#m
Before we go
                B
I want you to know
             A
how much I love
             E
sharing with you
             C#m
all that I have
                B
and all that I am
             A
belongs to you
            E
all of the time.

C#m - F#m - A - C#m
C#m - F#m - A

              C#m
You been so kind
           B
and wonderful
            A
              E
so close to me
               C#m
deep in my heart
            B
I clearly see
              A
that you and I
               E
will soon be free

C#m - F#m - A - C#m
C#m - F#m - A

  A               B
I'll be standing here
       C#m
waiting on you
A              B
I can hardly wait
             C#m
to make you mine (mine, mine...)


(B - A / A - B - C#m
B - A / A - B - C#m
B - A)

e|----------------------------------9-----------------------------|
B|--------------------------------9---12-9------------------------|
G|------9-9------9---------9--11b13--------13r11-9----13r11-9-11--|
D|-9h11-----11-9------9h11-------------------------11-------------|
A|----------------------------------------------------------------|
E|----------------------------------------------------------------|

e|---------------------------------------|
B|---------------------------------------|
G|-13b11-9-9-9h11---------9-9------9h11--|
D|-------------------9h11-----11-9-------|
A|---------------------------------------|
E|---------------------------------------|

e|-------12-14--14b16-14b16-14b16-14b16v--...--14r16-12-12-14--|
B|-12h14-------------------------------------------------------|
G|-------------------------------------------------------------|
D|-------------------------------------------------------------|
A|-------------------------------------------------------------|
E|-------------------------------------------------------------|

             C#m
It's time to go
                  B
and nothing can stop
            A
or even delay
               E
our journey's goal
             C#m
remember to be
               B
one with you heart
               A
one with the sky,
               E
one with the sea.

C#m - B - A - E (x6) - G - E

e|------------------------9-----------------|
B|------------------------9-12-9------9-----|
G|------9-11r13-9-11b13v--9------9-11---11--|
D|-9-11-------------------------------------|
A|------------------------------------------|
E|------------------------------------------|

e|------9-12-12b14v9--16r14-12-12--12----12-14-14b16--|
B|-9-12-------------------------------14--------------|
G|----------------------------------------------------|
D|----------------------------------------------------|
A|----------------------------------------------------|
E|----------------------------------------------------|

e|-14b16-14b16-14b16-14b16-14b16-14b16--16r14-12----12-12-12--|
B|-----------------------------------------------14-----------|
G|------------------------------------------------------------|
D|------------------------------------------------------------|
A|------------------------------------------------------------|
E|------------------------------------------------------------|

e|-12b14-12b14-12b14-12b14-...--|
B|------------------------------|
G|------------------------------|
D|------------------------------|
A|------------------------------|
E|------------------------------|

e|-12-9----9-------9-------9-------9-------9--|
B|------12---12b14---12b14---12b14---12b14----|
G|--------------------------------------------|
D|--------------------------------------------|
A|--------------------------------------------|
E|--------------------------------------------|

e|-9---------------------------14b16-14-12-12-12---12-14-14b16--|
B|-9-12-9---------------------------------------14--------------|
G|-9------13r11-9-13r11-9h11------------------------------------|
D|--------------------------------------------------------------|
A|--------------------------------------------------------------|
E|--------------------------------------------------------------|

e|-7-7-7s9-9-9-9s12-12-12-12s9-9-9-9s7-7-7s9-----------|
B|-7-7-7s9-9-9-9s12-12-12-12s9-9-9-9s7-7-7s9--12b14-9--|
G|-----------------------------------------------------|
D|-----------------------------------------------------|
A|-----------------------------------------------------|
E|-----------------------------------------------------|

e|-------12------------------------------|
B|-12b14----12b14-12b14-12b14-12b14-...--|
G|---------------------------------------|
D|---------------------------------------|
A|---------------------------------------|
E|---------------------------------------|

e|-------------------------------------------------------|
B|-12-9----9------------------12-14-12b14---14-14----12--|
G|------11---13r11-9----13-13---------------------13-----|
D|-------------------------------------------------------|
A|-------------------------------------------------------|
E|-------------------------------------------------------|

e|--------------------------------|
B|-12-12----12--------------------|
G|-------13----14---11s13-11-9-9--|
D|--------------------------------|
A|--------------------------------|
E|--------------------------------|

e|----------------------------------|
B|-------12-14-12b14---14-14----12--|
G|-13-13---------------------13-----|
D|----------------------------------|
A|----------------------------------|
E|----------------------------------|

e|--------------------------------|
B|-12-12----12--------------------|
G|-------13----14---11s13-11-9-9--|
D|--------------------------------|
A|--------------------------------|
E|--------------------------------|

e|-16r14-12v--12h14------14b16-14b16-14b16-------|
B|------------------14----------------------...--|
G|-----------------------------------------------|
D|-----------------------------------------------|
A|-----------------------------------------------|
E|-----------------------------------------------|

e|-16r14-12----12-14-16h14-12-------12-12-------12-12v--|
B|----------14----------------12-14-------12-14---------|
G|------------------------------------------------------|
D|------------------------------------------------------|
A|------------------------------------------------------|
E|------------------------------------------------------|





Comments


Popular Carlos Santana tabs & chords
Jingo Bass Tabs
Chill Out Chords
Europa Tabs
Hope Youre Feeling Better Tabs
Novus Tabs
One Chain Tabs
Smooth 3 Tabs
Stone Flower Live Tabs
Why Dont You And I Tabs
Let Me Inside Ukulele


Song lyrics



↑ Back to top | Tablatures and chords are parodies/interpretations of the original songs. You may use it for private study, scholarship, research or language learning purposes only
© 2014 AZChords.com Contact us | Privacy policy | DMCA | Add/correct tabs | Request tabs | Top 50 tabs