>
 >
All I Ever Wanted

All I Ever Wanted Bass Tabs

Carlos Santana - All I Ever Wanted chords, tabs, tablatures, lyrics

Guitar lessons | Add/correct | Request | Top 50 tabs Artists:  A B C D E F G H I J K L M N O P Q R S T U V W X Y Z 0-9

All I Ever Wanted Bass Tabs – Carlos Santana

CD, Sheet music, Poster

Do you like All I Ever Wanted? Share with your friends now
Bass TabsTabs
Santana
All I ever wanted
bass tab

  0.12         theme 1           t:170            4:4
|----------------|----------------|----------------|
|------------0---|----------------|----------------|
|------0-1-2-----|----------------|----------------|
|4---4---------2-----------------------------------|

|----------------|----------------|----------------|
|------------2---|----------------|----------------|
|------0-1-2-----|----------------|----------------|
|4---4---------0------------------|----------------|

|----------------|----------------|----------------|
|------------0---|----------------|----------------|
|------0-1-2-----|----------------|----------------|
|4---4---------2-----------------------------------|

|----------------|----------------|----------------|
|------------2---|----------------|----------------|
|------0-1-2-----|----------------|7\--------------|
|4---4---------0------------------|----------------|

   0.31     intro verse
|----------------|----------------|----------------|
|----------------|----------------|----------------|*
|----------------|----------------|----------------|*
|----------------|----------------|----------------|

|----------------|----------------|----------------|----------------|
|----------------|----------------|----------------|----------------|
|----------------|----------------|7\--------------|----------------|
|----------------|---------------0|----------------|----------------|

   0.46       pre-verse
|----------------|----------------|----------------|----------------|
|--------0-------|--------0-------|--------0-------|--------0-------|
|------2---2-4---|------2---2-4---|------2---2-4---|------2---2-4---|
|0-0-4---------0----0-4-----------|0-0-4---------0----0-4-----------|

   0.52        verse 1
|----------------|----------------|----------------|----------------|
|--------0-------|--------0-------|--------0-------|--------0-------|*
|------2---2-4---|------2---2-4---|------2---2-4---|------2---2-4---|*
|0-0-4---------0----0-4-----------|0-0-4---------0----0-4-----------|

|----------------|----------------|
|--------0-------|----------------|
|------2---2-4---|----------------|
|0-0-4---------0----0-4-0-5-6-7---|

  1.07         chorus 1
|----------------|----------------|----------------|----------------|
|----------------|----------------|--------------2------------------|
|5---5--05-------|----------------|----------4-=---|----------------|
|----------7-6-5----5-5--.5-4-3---|0---0--.4-------|--0-2-=-5-6-7---|

|----------------|----------------|----------------|----------------|
|----------------|----------------|----------------|----------------|
|5---5--05-------|----------------|----------4-----|----------------|
|----------7-6-5----5-5--.5-4-0-4----4-5-6-7---0-4----4-5-6-7-\\----|

   1.20        verse 2
|----------------|----------------|----------------|----------------|
|--------0-------|--------0-------|--------0-------|--------0-------|*
|------2---2-4---|------2---2-4---|------2---2-4---|------2---2-4---|*
|0-0-4---------0----0-4-----------|0-0-4---------0----0-4-----------|

|----------------|----------------|
|--------0-------|----------------|
|------2---2-4---|----------------|
|0-0-4---------0----0-4-0-5-6-7---|

  1.35         chorus 2
|----------------|----------------|----------------|----------------|
|----------------|----------------|--------------2------------------|
|5---5--05-------|----------------|----------4-=---|----------------|
|----------7-6-5----5-5--.5-4-3---|0---0--.4-------|--0-2-=-5-6-7---|

|----------------|----------------|----------------|----------------|
|----------------|----------------|----------------|----------------|
|5---5--05-------|----------------|----------4-----|----------4-----|
|----------7-6-5----5-5--.5-4-0-4----4-5-6-7---0-4----4-5-6-7---0-4-|

                                  |----------------|----------------|
                                  |----------------|----------------|
                                  |----------4-----|----------4-----|
                                  ---4-5-6-7---0-4----4-5-6-7---7\--|
  1.51          riff
|----------------|----------------|----------------|----------------|
|--2-0-----------|----------------|2-2-0-----------|----------------|
|------4-2-------|----------2-4-2-|------4-2-------|----------2-4---|
|----------3-2-0----2-3-4---------|----------3-2-0----2-3-4---------|

  1.57         solo 1
|----------------|----------------|----------------|----------------|
|----------------|----------------|----------------|----------------|
|5---5--05-------|--0-2---2-3-4---|5-5-5-----------|--0-2-.-3-4-5-.-|
|----------3-4-5------------------|------0-2-3-4-5------------------|

|----------------|----------------|----------------|--------------|
|----------------|----------------|----------------|--------------| 7:8
|5-5-5-----------|----------5-----|----------------|--5-5---5-5---|
|------0-2-3-4-5----5-7-.-7---7\--|7-7-7-7-7-7-7-7-|--------------|

  2.09         theme 2
|----------------|----------------|----------------|
|------------0---|----------------|----------------|
|------0-1-2-----|----------------|----------------|
|4---4---------2-----------------------------------|

|----------------|----------------|----------------|
|------------2---|----------------|----------------|
|------0-1-2-----|----------------|----------------|
|4---4---------0-|0---------------|----------------|

|----------------|----------------|----------------|
|------------0---|----------------|----------------|
|------0-1-2-----|----------------|----------------|
|4---4---------2-----------------------------------|

|----------------|----------------|----------------|
|------------2---|----------------|14...\\---------|
|------0-1-2-----|----------------|----------------|
|4---4---------0------------------|----------------|

  2.28         solo 2
|----------------|----------------|----------------|----------------|
|--------0-------|--------0-------|--------0-------|--------0-------|x
|------2---2-4---|------2---2-4---|------2---2-4---|------2---2-4---|6
|0-0-4---------0----0-4-----------|0-0-4---------0----0-4-----------|

  3.04         chorus 3
|----------------|----------------|----------------|----------------|
|----------------|----------------|--------------2------------------|
|5---5--05-------|----------------|----------2-4---|----------2-4---|
|----------7-6-5----5-5--.5-4-3---|0-0-2--.4-------|--0-2-0-4-------|

|----------------|----------------|----------------|----------------|
|----------------|----------------|----------------|----------------|
|5---5--05-------|----------------|----------4-----|----------4-----|
|----------7-6-5----5-5--.5-4-0-4----4-5-6-7---0-4----4-5-6-7---7\--|

   3.16        verse 3
|----------------|----------------|----------------|----------------|
|--------0-------|--------0-------|--------0-------|--------0-------|*
|------2---2-4---|------2---2-4---|------2---2-4---|------2---2-4---|*
|0-0-4---------0----0-4-----------|0-0-4---------0----0-4-----------|

|----------------|----------------|
|----------------|----------------|
|----------------|----------------|
|0---------------|----------------|

  3.32         chorus 4a
|----------------|----------------|----------------|----------------|
|----------------|----------------|--------------2------------------|
|5---5--05-------|----------------|----------4-=---|----------------|
|----------7-6-5----5-5--.5-4-3-0----0-0--.4-------|--0-4-=-5-6-7---|

|----------------|----------------|----------------|----------------|
|----------------|----------------|----------------|----------------|
|5---5--05-------|----------------|----------4-----|----------4-----|
|----------7-6-5----5-5--.5-4-0-4----4-5-6-7---0-4----4-5-6-7---7\--|

  3.44         chorus 4b
|----------------|----------------|----------------|----------------|
|----------------|----------------|----------------|------2---------|
|5---5--05-------|----------------|--------------0-|2-3-4---4-3-2-0-|
|----------7-6-5----5-5--.5-4-3-0----0-2-=-2-3-4---|----------------|

|----------------|----------------|
|----------------|----------------|
|5---5--05-------|----------------|
|----------7-6-5----5-5--.5-4-3\\-|

  3.54         outro
|----------------|----------------|----------------|
|----------------|----------------|----------------|
|----------------|----------------|--5-5---5-5---7-|
|----------------|----------------|--------------0-|





Comments


Popular Carlos Santana tabs & chords
Incident At Neshabur Bass Tabs
Into The Night Chords
Maria Maria Chords
Jingo Tabs
Let Me Love You Tonight Tabs
Let The Children Play Tabs
Love Is You Tabs
Put Your Lights On Tabs
Samba De Sausalito Tabs
Chill Out Ukulele


Song lyrics



↑ Back to top | Tablatures and chords are parodies/interpretations of the original songs. You may use it for private study, scholarship, research or language learning purposes only
© 2014 AZChords.com Contact us | Privacy policy | DMCA | Add/correct tabs | Request tabs | Top 50 tabs