>
 >
All I Ever Wanted

All I Ever Wanted Guitar Tabs

Carlos Santana - All I Ever Wanted chords, tabs, tablatures, lyrics

Guitar lessons | Add/correct | Request | Top 50 tabs Artists:  A B C D E F G H I J K L M N O P Q R S T U V W X Y Z 0-9

All I Ever Wanted Guitar Tabs – Carlos Santana

CD, Sheet music, Poster

Do you like All I Ever Wanted? Share with your friends now
Bass TabsTabs


Tablature Explanation:
h=hammer-on
p=pull-off
/=slide up
=slide down
b=bend half
^=bend full
br, ^r=bend & release
///////= tremolo pick

A lot of the riffs are repeated in the song so I only wrote them
once. They are in order of appearance.

Intro
|-(0:12)---------------------------------------|
|----------------------------------------------|
|----------------------------------------------|
|-------------0------------------------2-------|
|-------0-1-2--------------------0-1-2---------|
|-4---4---------2----------4---4---------0-----|

play along with lyrics:
|-----------------------------------------------------------------------------|
|-9--12-----------------------------------------------------------------------|
|-------11^r-9-9-11^r~~~~~~~~----11^--11-9-11-11-9~~~~~~~~~~------------------|
|-----------------------------------------------------------------------------|
|-----------------------------------------------------------------------------|
|-0:30----------------------------0:35----------------------------------------|


---------------------------------------12-12-12---12------12------14^-12-10--|
--/9---12-12-9-12-9-12^r~~~~~~~~~---------------------14------14-------------|
-----------------------------------------------------------------------------|
-----------------------------------------------------------------------------|
-----------------------------------------------------------------------------|
-0:40----------------------------------0:43----------------------------------|


|-0:46------------------------------|
|-----------------------------------|
|-----------------------------------|
|-----------------------------------|
|-------2-5-2-4---------2-5-2-4-----|
|-0-0-4---------0---0-4-------------|


|-------------------|
|-------------------|
|-4-4-4-4-4-4-4-4---|
|-2-2-2-2-2-2-2-2---|
|-------------------|
|-1:04--------------|


|-----------------------------------------|
|-----------------------------------------|
|-2---------------------------------------|
|-0----------2----------------------------|
|------------0-----------2-----------2----|
|-1:07-chorus------------0-----------0----|


|---------------------------------------|
|---------------------------------------|
|-------------7-------------------------|
|-6---6-7-8-9-----6---6-7-8-9-----------|
|---------------9-------------7---------|
|-1:16----------------------------------|


|-----------------------------------------------------------------------|
|-----------------------------------------------------------------------|
|-------------7---------------9---------------7---------------9---------|
|-6---6-7-8-9-----6---6-7-8-9-----6---6-7-8-9-----6---6-7-8-9-----------|
|---------------9---------------7---------------9---------------7-------|
|-1:45------------------------------------------------------------------|


|-1:51------------------------------------------------------------|
|-----------------------------------------------------------------|
|-----------------------------------------------------------------|
|-2------------------------------2--------------------------------|
|---5-4-2------------------2-4-2-----5-4-2-----------------2-4-2--|
|---------3-2-0---2-3-4--------------------3-2-0---2-3-4----------|


There are two guitars playing here. The second guitar part is harder to hear
but is better. There isn't all that much to guitar one's part.

Guitar 1:
|-1:57-----------------------------------10--------------------------10---|
|------------------------------------/13-------------------------/13------|
|-------------------------------------------------------------------------|
|-----------------7-9-7---------------------------------------------------|
|-5-------5-5-/9----------------------------------------------------------|
|-------------------------------------------------------------------------|

Guitar 2:
|-----------------------------------------------------------------------------|
|-------------------------------------------10----10------12---12p10----10----|
|----------11-9-------------------------/11----11------11-----------11--------|
|-12///////-------11---9--------12/////---------------------------------------|
|--------------------------12-------------------------------------------------|
|-1:57------------------------------------------------------------------------|


---------------------------------------------------------------------------|
--------------10-----------------------------------------------------------|
----------/11----9h11-9----------------------------------------------------|
-12//////-----------------11---9h11p9---------12~~~~~~~~~~~~~~~~~~~~~~-----|
----------------------------------------12---------------------------------|
---------------------------------------------------------------------------|

Solo:
|----------------------------------------------------------------------------|
|-15^-15^---------------15^------r15--r15--r15-r15-r15-r15-r15r15-12h14-12---|
|----------------------------------------------------------------------------|
|--------------------------------pre bend and pick and release---------------|
|----------------------------------------------------------------------------|
|-2:27-----------------------------------------------------------------------|


---------12-14-14br-12----12-15^-----15^-15^-15^r-17-17-15^-17-17r15----------|
---12h14---------------14-----------------------------------------------------|
------------------------------------------------------------------------------|
------------------------------------------------------------------------------|
------------------------------------------------------------------------------|
--2:37------------------------------------------------------------------------|


---12----14br-12-----12-12-----12-12-----12---12---12--12--12--12-------------|
------12---------15^-------15^-------15^---15^--15^--15^-15^-15^-15^----------|
------------------------------------------------------------------------------|
------------------------------------------------------------------------------|
------------------------------------------------------------------------------|
--2:42------------------------------------------------------------------------|


---15p12------------------------------r10-------10-10-10-----10-----10-----10-|
--------15p12--------------------------------------------10^----10^----10^----|
-------------14p12------------------------------------------------------------|
------------------14p12h14----------------------------------------------------|
------------------------------------------------------------------------------|
--2:46------------------------------------------------------------------------|


-----10-----10--10--10--10--10-10-10-10--------/10-10--------10-10-10-10-10---|
-10^----10^-12--12--12--12--12-12-12-12--------/12-12--------12-12-12-12-12---|
------------------------------------------------------------------------------|
------------------------------------------------------------------------------|
------------------------------------------------------------------------------|
-----------------------------------------------2:56---------------------------|


-10--7------------------/10-10-------/10-10---------------------------|
--------10^r-8-10-10-8---12-12-------/12----12-11-10-10^r-------------|
----------------------------------------------------------12-9--------|
----------------------------------------------------------------------|
----------------------------------------------------------------------|
-------------------------------------3:03-----------------------------|


|-/16////////-/16//////--16--14--12-----|
|-/17////////-/17//////--17--14--12-----|
|---------------------------------------|
|---------------------------------------|
|---------------------------------------|
|-3:07----------------------------------|

along with lyrics:
|-----------------------------------------------------------------------------|
|------9---12-----------------------------------------------------------------|
|-9-11--------11^r-9-9-11^r~~~~~~-------11^--11-9-11-11-11^r-9~~~~~~~---------|
|-----------------------------------------------------------------------------|
|-----------------------------------------------------------------------------|
|-3:17------------------------------------------------------------------------|


------------------------------9-12-12--9-12-12--9-12-12-12-9-12-9-12////-9---|
-9---12-12-9-12-9-12^r-------------------------------------------------------|
-----------------------------------------------------------------------------|
-----------------------------------------------------------------------------|
-----------------------------------------------------------------------------|
-----------------------------------------------------------------------------|


|-16-\\\\\--------------|
|-17-\\\\\--------------|
|-----------------------|
|-----------------------|
|-----------------------|
|-3:48------------------|


|------------------------------------------------------------------|
|-3h5p3-------------------3h5p3------------------------------------|
|------------------------------4-------------------2-2--2-2--2-----|
|--------5-2--0h2p0--------------5-2--0h2p0--------0-0--0-0--4-----|
|------------------2-----------------------2-----------------------|
|--------------------3-0---------------------3-0-------------------|





Comments


Popular Carlos Santana tabs & chords
Samba Pa Ti Bass Tabs
Soul Sacrifice Bass Tabs
Soul Sacrifice 2 Bass Tabs
Hoy Es Adios Intro 1 Tabs
Smooth Tabs
Smooth 2 Tabs
Soul Sacrifice Tabs
Treat Tabs
Why Dont You And I Intro Tabs
I Am Somebody Ukulele


Song lyrics



↑ Back to top | Tablatures and chords are parodies/interpretations of the original songs. You may use it for private study, scholarship, research or language learning purposes only
© 2014 AZChords.com Contact us | Privacy policy | DMCA | Add/correct tabs | Request tabs | Top 50 tabs