>
 >
Africa Bamba Live

Africa Bamba Live Guitar Tabs

Carlos Santana - Africa Bamba Live chords, tabs, tablatures, lyrics

Guitar lessons | Add/correct | Request | Top 50 tabs Artists:  A B C D E F G H I J K L M N O P Q R S T U V W X Y Z 0-9

Africa Bamba Live Guitar Tabs – Carlos Santana

CD, Sheet music, Poster

Do you like Africa Bamba Live? Share with your friends now
Tabs
Key: Am

Infact I got nothin to say over this song, the music speaks for itself. So enjoy!!!!

************************************

| /   slide up
| \   slide down
| h   hammer-on
| p   pull-off
| ~   vibrato
| +   harmonic
| x   Mute note
| b   Bend
| pb  Pre-bend
| br  Bend release
| pbr Pre-bend release
| brb Bend release bend

************************************

Intro: Am/E/F7/E/Am (4 times)

Intro acoustic
e:------------------5-------------------------------------------------------|
B:---------5---5--5---55-h8p5---5----------------------------5-8-6-6-5h6p5--|
G:---4-5-7---7----------------7---7-7-7-5-5-5-4-4-5h7-5---------------------|
D:-7----------------------------------------------------7-7-----------------|
A:--------------------------------------------------------------------------|
E:--------------------------------------------------------------------------|

e:------------------------------5-5-5-4-4----------------------------------|
B:---5----5-8-6-6-5h6p5-------------------6-5-5h6p5------------------------|
G:-7---7----------------7-7/9-7---------------------7-7-5-5-5-4-5h7-5------|
D:--------------------------------------------------------------------7-7--|
A:-------------------------------------------------------------------------|
E:-------------------------------------------------------------------------|

Electric
e:--------------------------------------------------------------------------|
B:-12b13r12-----------12b13r12----12-13--12-13-15-15-13--13-12-12----12-----|
G:----------1414-p12-----------14---------------------------------14--------|
D:--------------------------------------------------------------------------|
A:--------------------------------------------------------------------------|
E:--------------------------------------------------------------------------|

e:---------------------------------------------1212-1312-1312-13-15-1312-13-|
B:------------------------------1212-1313-1515------------------------------|
G:-----------------------141414---------------------------------------------|
D:------------7-7-7-7-14----------------------------------------------------|
A:-7\5-3-5-5/7--------------------------------------------------------------|
E:--------------------------------------------------------------------------|

e:-13p12----12------------------------------------|
B:-------15----15-15-13-12-13---------------------|
G:----------------------------1414-14-14----------|
D:---------------------------------------12h14----|
A:------------------------------------------------|
E:------------------------------------------------|

 Am                   E
Ella baila a la Portuguesa,
e:---------------------|
B:-5-6-5-8-6-5---------|
G:-------------7/9-7---|
D:---------------------|
A:---------------------|
E:---------------------|

 F7     E               Am
ella   baila a la Portuguesa
e:---5-7-8-8-7-5---------------|
B:-5-------------5-------------|
G:-----------------------------|
D:-----------------------------|
A:-----------------------------|
E:-----------------------------|

 Am                    E
Ella baila a la Portuguesa,
e:-12-13-12----12------------|
B:----------15----15-15~-----|
G:---------------------------|
D:---------------------------|
A:---------------------------|
E:---------------------------|

F7      E                Am
ella   baila a la Portuguesa
e:-5-8-55----------------------|
B:----------5------------------|
G:--------7--------------------|
D:-----------------------------|
A:-----------------------------|
E:-----------------------------|

 Am                           E
Estoy llamando a todas las morenas,
  F7           E               Am
 y la llamada tan viene de la luz
 A                      Dm       G
Con calma se baila esta danza   y con amor
      E          Am
canto yo esta cancion
e:-5-8-7-5-5-----------|
B:-5-------------------|
G:-5-------------------|
D:---------------------|
A:---------------------|
E:---------------------|

Am                                E
África bamba hace a un lado a la tristeza,
e:---------------------------------------------|
B:-5-6-5-8-6-5---------------------------------|
G:-------------7-7/9\7-/9\7--------------------|
D:---------------------------------------------|
A:---------------------------------------------|
E:---------------------------------------------|

F6        E                      Am
y otra mas dulce no la podras encontrar
e:-5-8-7-5---5-5-------------------------|
B:-5-------8-----------------------------|
G:-5-------------------------------------|
D:---------------------------------------|
A:---------------------------------------|
E:---------------------------------------|

 G         F             Am
Oye eso te va a sentir feliz,
 G         F             Am
Oye eso te va a sentir feliz,
 G         F             Am
Oye eso te va a sentir feliz,
e:----12-12---------------------|
B:----------13------------------|
G:-14----------14---------------|
D:------------------------------|
A:------------------------------|
E:------------------------------|

 G         F             Am
Oye eso te va a sentir feliz,
e:-5-8-7-5---5-5----------------|
B:---------8--------------------|
G:------------------------------|
D:------------------------------|
A:------------------------------|
E:------------------------------|


Ella baila a la Portuguesa,
e:-12-13-12h13p12----1212-----------------------------------------------|
B:-12-------------15------15-15-13-13-12-13-15-13-----------------------|
G:-12---------------------------------------------14-14-----------------|
D:------------------------------------------------------12/14-12-12h14--|
A:----------------------------------------------------------------------|
E:----------------------------------------------------------------------|

Ella baila a la Portuguesa,
e:-------------------------------|
B:-5-6-5-8-6-5-5-6-5-------------|
G:-------------------7-7/9\7-7---|
D:-------------------------------|
A:-------------------------------|
E:-------------------------------|

ella   baila a la Portuguesa
e:-5-8-7-5---5-----------------|
B:-5-------8-------------------|
G:-5---------------------------|
D:-----------------------------|
A:-----------------------------|
E:-----------------------------|

Estoy llamando a todas las morenas,
y la llamada tan viene de la luz
e:---5-8-7---5------------5---------5--10-12-10-8-10-8-7--------5----5----5-|
B:-5-------8------------5---5---5-6------------------------5-3/5--3/5--3/5--|
G:--------------------5-------7--------------------------7------------------|
D:------------------7-------------------------------------------------------|
A:----------------7---------------------------------------------------------|
E:--------------------------------------------------------------------------|

e:-8-5-5--|
B:--------|
G:--------|
D:--------|
A:--------|
E:--------|

África bamba hace a un lado a la tristeza
e:-------------------------------------------|
B:-5-6-5-8-6-5-------------------------------|
G:-------------7-7/9-7-7-7-7-----------------|
D:-------------------------------------------|
A:-------------------------------------------|
E:-------------------------------------------|

y otra mas dulce no la podras encontrar
e:-5-8-7-5-5------------------------------|
B:-5---------5---5------------------------|
G:-5-----------7--------------------------|
D:----------------------------------------|
A:----------------------------------------|
E:----------------------------------------|

Oye eso te va a sentir feliz,
e:----5----5--------------------------|
B:-3/5--3/5--3/5-------5--------------|
G:---------------7-5-7---7-5-7-7~-7---|
D:------------------------------------|
A:------------------------------------|
E:------------------------------------|

Oye eso te va a sentir feliz,
e:-12-12-12-----------------------|
B:----------13--------------------|
G:-------------14----------14-14--|
D:----------------14-12/14--------|
A:--------------------------------|
E:--------------------------------|

Oye eso te va a sentir feliz,
e:-5-7-8-8--8-5-----------------|
B:--------------5---5-----------|
G:----------------5---5---------|
D:----------------------7-7-----|
A:------------------------------|
E:------------------------------|

Oye eso te va a sentir feliz,
e:-5-8-7-5-5------------------|
B:-5--------------------------|
G:-5--------------------------|
D:----------------------------|
A:----------------------------|
E:----------------------------|

Ella,
e:-12-13--8-12-13--|
B:-12-13--8-12-13--|
G:-9--10--5-9--10--|
D:-----------------|
A:-----------------|
E:-----------------|

Ella,
e:-12-13--8-12-13--|
B:-12-13--8-12-13--|
G:-9--10--5-9--10--|
D:-----------------|
A:-----------------|
E:-----------------|

Ella,
e:-12-13--8-12-13--|
B:-12-13--8-12-13--|
G:-9--10--5-9--10--|
D:-----------------|
A:-----------------|
E:-----------------|

Ella,
e:-12-13--8-12-1717--|
B:-12-13--8-12-1717--|
G:-9--10--5-9--1414--|
D:-------------------|
A:-------------------|
E:-------------------|

SOLO
e:--------------------------------------------------------------------------|
B:----12-13-12h13p12--------------------------------------------------------|
G:-14----------------14-12------------------------12-14---------------------|
D:-------------------------15-14-12-12h14~--14-15-------12h14-\12p10h12-----|
A:--------------------------------------------------------------------------|
E:--------------------------------------------------------------------------|

e:-----------------------------------------------------------------5------5-|
B:------------------------------------------------------5555-66666---3/5----|
G:-5-7-5h7p5---5\4/5~------------------444---4-5555-777---------------------|
D:-----------7--------7-77-5-777-5-777-----7--------------------------------|
A:--------------------------------------------------------------------------|
E:--------------------------------------------------------------------------|

e:-----5-55-555---55-555-55---55555-777-888-10--121212-12-1212-1212-1212~-13-|
B:-3/5----------5-----------5--------------------------15^--15^--15^---------|
G:---------------------------------------------------------------------------|
D:---------------------------------------------------------------------------|
A:---------------------------------------------------------------------------|
E:---------------------------------------------------------------------------|

e:-15/17-12h15p12----12--------------------------------------------12-12----|
B:----------------15----15-13-15-13-13-12-13-13-----------------13-------13-|
G:----------------------------------------------14~14~14~14~-14-------------|
D:--------------------------------------------------------------------------|
A:--------------------------------------------------------------------------|
E:--------------------------------------------------------------------------|

e:1212-12-------12-12--12////13///14////15///-15/17~~-1720p1720p1720p1720p17-|
B:-----------13--------12////13///14////15///--------------------------------|
G:--------14------------9////10///11////12///--------------------------------|
D:---------------------------------------------------------------------------|
A:---------------------------------------------------------------------------|
E:---------------------------------------------------------------------------|

e:20p17-20^-17h20p17----17~~----20-22^22^\-17-20-20p19p17-20p19p17-20p19p17-|
B:-------------------20------22---------------------------------------------|
G:--------------------------------------------------------------------------|
D:--------------------------------------------------------------------------|
A:--------------------------------------------------------------------------|
E:--------------------------------------------------------------------------|

e:-20p19p17----17----17~--17~--17~--17~----17-20-17h20p17----17~~-----------|
B:----------20----20^---20---20---20----20^---------------20------20-17--20-|
G:--------------------------------------------------------------------------|
D:--------------------------------------------------------------------------|
A:--------------------------------------------------------------------------|
E:--------------------------------------------------------------------------|

e:------------------------17171717\---|
B:-17h20p17----17---------17171717\---|
G:----------19----19-17\--14141414\---|
D:------------------------------------|
A:------------------------------------|
E:------------------------------------|

 Aree,Aree,Aree,Aree
e:----------------------|--------------------------|-------------------------|
B:----------------------|------5-------------------|---------------------5-5-|
G:-14~~\--7-5-7-7/9-9~~-|-14~----5-7/9-\7-5-7/9-7~-|----14-14---7/9-7-5-7----|
D:----------------------|--------------------------|-14----------------------|
A:----------------------|--------------------------|-------------------------|
E:----------------------|--------------------------|-------------------------|

e:-----------------------------------------|--------------------------|
B:-13-12--------------5--------------------|-----------5-------5-5----|
G:-------12----14-14----7-5-7/9-7-5-7/9-7~-|----14-14----7-5-7--------|
D:----------14-----------------------------|-14-----------------------|
A:-----------------------------------------|--------------------------|
E:-----------------------------------------|--------------------------|

e:-7h8-7-----5-5------------------------|---------------------------------|
B:-------8-5------5---------------------|----13---------------------------|
G:------------------7-5-7-7/9-7-5-7/9-7-|-------14-14-14--7/9-7-5-7-9-9---|
D:--------------------------------------|---------------------------------|
A:--------------------------------------|---------------------------------|
E:--------------------------------------|---------------------------------|

e:-7/8-7-----5-5--------------|--------12--------12--------12----------12---|
B:-------8-5------5-------5-5-|-----13--------13--------13-------12-15------|
G:------------------7-5-7-----|--14--------14--------14---------------------|
D:----------------------------|---------------------------------------------|
A:----------------------------|---------------------------------------------|
E:----------------------------|---------------------------------------------|

e:-----17-19-20-19-20-19-20-20p19----17-----20-22^-^-^-^-^-^-171717-17--1717-|
B:-/17----------------------------20-----22-------------------------20^------|
G:---------------------------------------------------------------------------|
D:---------------------------------------------------------------------------|
A:---------------------------------------------------------------------------|
E:---------------------------------------------------------------------------|

e:-17////////////-----19-17-15-13-12h13p12----12-12--121212-----------------|
B:-----------------20----------------------15----15^--------15b18--13-15-15-|
G:--------------------------------------------------------------------------|
D:--------------------------------------------------------------------------|
A:--------------------------------------------------------------------------|
E:--------------------------------------------------------------------------|

e:--------------------------------------------------------------------------|
B:-15-13-12-13-12h13p12----------------------------------12-12-12-13-13-15--|
G:----------------------14----------------12-141414-1414--------------------|
D:-------------------------14\12-10-12/14-----------------------------------|
A:--------------------------------------------------------------------------|
E:--------------------------------------------------------------------------|

e:-12/////////13/12//////////13/12/////////13///////17//////19//-//-//20////-|
B:-12/////////13/12//////////13/12/////////13///////17//////19//-//-//20////-|
G:--9/////////10/-9//////////10/-9/////////10///////14//////16//-//-//17////-|
D:---------------------------------------------------------------------------|
A:---------------------------------------------------------------------------|
E:---------------------------------------------------------------------------|

e:-22p20-22p20-22p20-22p20-22^--17-17-----17-20p17----17-----17----17-17-20-|
B:------------------------------------20^----------20----20^----20----------|
G:--------------------------------------------------------------------------|
D:--------------------------------------------------------------------------|
A:--------------------------------------------------------------------------|
E:--------------------------------------------------------------------------|

e:19-17----17-------------------------171717---17---17---1717--17--1717--17-|
B:------20----20-17------------17-----171717---17---17---1717--17--1717--17-|
G:------------------19br-17-19-----19^------19^--19^--19^----19^-19^---19^--|
D:--------------------------------------------------------------------------|
A:--------------------------------------------------------------------------|
E:--------------------------------------------------------------------------|

e:----20p17----17-17-17~17-20p17----17--------------------------------------|
B:-17-------20-------------------20----20-17----17-----------17-20p17-20p17-|
G:-------------------------------------------19----19-17-19^----------------|
D:--------------------------------------------------------------------------|
A:--------------------------------------------------------------------------|
E:--------------------------------------------------------------------------|

                                       aree,aree,aree,aree
e:-------------------------------17\--|-----------17---\-------|
B:----------17-------------------17\--|-----------17---\-------|
G:-19-17-19----19-17-19-19-17\---14\--|-----------14---\-------|
D:------------------------------------|------------------------|
A:------------------------------------|0-0--0-0----------------|
E:------------------------------------|------------------------|

That's it. Hope y'all liked it.
Any correction, suggestion etc, are all welcome.





Comments


Popular Carlos Santana tabs & chords
Smooth 2 Bass Tabs
Amazing Grace Intro Chords
Into The Night Chords
Somewhere In Heaven Chords
Aqua Marine 2 Tabs
Black Magic Woman Live Intro Tabs
Body Surfing Tabs
Flor D Luna 1 Tabs
Into The Night 4 Tabs
Why Dont You And I Intro 2 Tabs


Song lyrics



↑ Back to top | Tablatures and chords are parodies/interpretations of the original songs. You may use it for private study, scholarship, research or language learning purposes only
© 2014 AZChords.com Contact us | Privacy policy | DMCA | Add/correct tabs | Request tabs | Top 50 tabs