» » »

Adouma Tabs (ver.1)

Artists:  A B C D E F G H I J K L M N O P Q R S T U V W X Y Z # 

Adouma Tabs (ver.1)

Carlos Santana
Rating:
4/5 (2 votes)

Hard to play? Try these video lessons and learn fast.
                band: carlos santana
x = mute
^ = bend
/ = slide up
\ = slide down


part 1 :
|-------------------------------------|
|----------------3--------------------|
|-0-2-3---5--3-5---3------------------|
|-------5-------------5---3/5-5-------|
|-------------------------------------|
|-------------------------------------|

|--------------------------------6----|
|----------------------3--6^-6^---8-6-|
|-0-2-3---5/7-5/7--5-5----------------|
|-------5-----------------------------|
|-------------------------------------|
|-------------------------------------|

|--------11-----11------------------------------------|
|-8-10-11----------13-11-10-13-11-10-11-11-13-13-15-15|
|------------12---------------------------------------|
|-----------------------------------------------------|
|-----------------------------------------------------|
|-----------------------------------------------------|

|----15-----------------15------15-18-17-15-----------|
|-15----17-17^-15-13-15----17-15------------15-17-----|
|-----------------------------------------------------|
|-----------------------------------------------------|
|-----------------------------------------------------|
|-----------------------------------------------------|

|---------------------------14------------------------|
|-18-17-15---15/17-18/20-17^--17^-----18-17-15--15----|
|----------17--------------------17-15--------15--15--|
|-----------------------------------------------------|
|-----------------------------------------------------|
|-----------------------------------------------------|

part2:
|--------------------------------------6--------------|
|---------------3-------------------6/8--8------------|
|--5^-3----------3-----5^-5^-5^-----------------------|
|-----------------5-----------------------------------|
|---------------------------------------------------=-|
|-----------------------------------------------------|

    (adouma adouma adouma hey adouma ke ke ke)
|--------------------------------|
|------8-8-10-6------------------|
|-7-10---------------------------| repeat this once again
|--------------------------------|
|--------------------------------|
|--------------------------------|

part 3:
|-----------------------------------8----------------|
|-----------------------8-8-11-8------8-8-11-8-8-----|
|-5^-3--------------5/7------------------------------|
|------5---5^-3--------------------------------------|
|---------------5------------------------------------|
|----------------------------------------------------|

   (adouma adouma adouma hey adouma ke ke ke)
|--------------------------------|
|------8-8-10-6------------------|
|-7-10---------------------------| repeat this once again
|--------------------------------|
|--------------------------------|
|--------------------------------|

( oh oh oh oh oh oh oh oh oh)

|--------------------------------|
|--------------------------------|
|--------------------------------|
|----------17-15-----------------|
|-15-17-15-------17-15-13-10-----|
|--------------------------------|



enjoy!!
            
Hard to play? Try these video lessons and learn fast. | Correct




comments powered by Disqus
↑ Back to top | Tablatures and chords are parodies/interpretations of the original songs. You may use it for private study, scholarship, research or language learning purposes only