» » »

Carla Bruni, Tout Le Monde Chords (ver.1)

Artists:  A B C D E F G H I J K L M N O P Q R S T U V W X Y Z # 

Tout Le Monde Chords (ver.1)

Carla Bruni Tabs
 Rating:
4.2/5 (5 votes)
Tout Le Monde lessons Tabs too difficult? Try these video lessons and learn fast
1
                ++++++++++++++++++++++++++++++
| carla Bruni- Tout Le Monde |
++++++++++++++++++++++++++++++


"Tout le monde a l'âme emmêlée..."


Chords:

E:   022100
Ab7: 464544
A:   x02220
Am:  x02210
B7:  x21202
C#m: x46654



Intro

E - B7 - C#m - A


e|----0------5-------------5------0------5-------------5---|
B|------0------4----5------5-2------0------4----5------5-2-|
G|--------------------6---------------------------6--------|
D|-2~--------------------------2~--------------------------|
A|--------2~-----4~-----0~------------2~-----4~-----0~-----|
E|---------------------------------------------------------|
   E      B7     C#m    A      E      B7     C#m    A


Verse

         E              Ab7        C#m
Tout le monde est une drôle de personne,
     A               Am       E
Et tout le monde a l'âme emmêlée, 
         Ab7                         C#m   A
Tout le monde a de l'enfance qui ronronne, 
     E         B7        E    B7
Au fond d'une poche oubliée, 
         E           Ab7       C#m
Tout le monde a des restes de rêves, 
    A            Am       E
Et des coins de vie dévastés, 
         Ab7                C#m           A
Tout le monde a cherché quelque chose un jour, 
      E                B7          C#m
Mais tout le monde ne l'a pas trouvé, 
      A                Am          E
Mais tout le monde ne l'a pas trouvé. 


Chorus

    Ab7                          C#m
Il faudrait que tout l'monde réclame 
    A         B7  E
auprès des autorités, 
    Ab7                C#m      A
Une loi contre toute notre solitude, 
     E           B7      C#m
Que personne ne soit oublié, 
        A           Am       E   B7
Et que personne ne soit oublié 


Verse

E - Ab7 - C#m
A - Am - E
Ab7 - C#m - A
E - B7 - C#m
A - Am - E - B7

Tout le monde a une sale vie qui passe, 
Mais tout le monde ne s'en souvient pas, 
J'en vois qui la plient et même qui la cassent, 
Et j'en vois qui ne la voient même pas, 
Et j'en vois qui ne la voient même pas. 


Bridge

e|-----------9~------------------------------------------9---------------------------|
B|-5-5/9~-------9b-7-5b~--5/7b~--7/9b~----9b~--7b~--5b~----7/9-5-7-9~--9/10b~--5~----|
G|-----------------------------------------------------------------------------------|
D|-----------------------------------------------------------------------------------|
A|-----------------------------------------------------------------------------------|
E|-----------------------------------------------------------------------------------|

e|---------------------------/12b~----|
B|-----5---8b~--5h7b~--5-5~-----------|
G|-4h6---6----------------------------|
D|------------------------------------|
A|------------------------------------|
E|------------------------------------|

Chorus

Ab7 - C#m
A - B7 - E
Ab7 - C#m - A
E - B7 - C#m
A - Am - E - B7

Il faudrait que tout l'monde réclame auprès des autorités, 
Une loi contre toute notre indifférence, 
Que personne ne soit oublié, 
Et que personne ne soit oublié. 

Verse

E - Ab7 - C#m
A - Am - E
Ab7 - C#m - A
E - B7 - C#m
A - Am - E - B7

Tout le monde est une drôle de personne, 
Et tout le monde a une âme emmêlée, 
Tout le monde a de l'enfance qui résonne, 
Au fond d'une heure oubliée, 
Au fond d'une heure oubliée


Please rate thanks!



Lyrics:


Tout le monde est une drôle de personne,
Et tout le monde a l'âme emmêlée, 
Tout le monde a de l'enfance qui ronronne, 
Au fond d'une poche oubliée, 
Tout le monde a des restes de rêves, 
Et des coins de vie dévastés, 
Tout le monde a cherché quelque chose un jour, 
Mais tout le monde ne l'a pas trouvé, 
Mais tout le monde ne l'a pas trouvé. 

Il faudrait que tout l'monde réclame auprès des autorités, 
Une loi contre toute notre solitude, 
Que personne ne soit oublié, 
Et que personne ne soit oublié 

Tout le monde a une sale vie qui passe, 
Mais tout le monde ne s'en souvient pas, 
J'en vois qui la plient et même qui la cassent, 
Et j'en vois qui ne la voient même pas, 
Et j'en vois qui ne la voient même pas. 

Il faudrait que tout l'monde réclame auprès des autorités, 
Une loi contre toute notre indifférence, 
Que personne ne soit oublié, 
Et que personne ne soit oublié. 

Tout le monde est une drôle de personne, 
Et tout le monde a une âme emmêlée, 
Tout le monde a de l'enfance qui résonne, 
Au fond d'une heure oubliée, 
Au fond d'une heure oubliée



+++++++++++
| Raileff |
+++++++++++
            
Submit corrections

comments powered by Disqus
↑ Back to top | Carla Bruni Chords for Tout Le Monde. Lyrics for acoustic guitar and electric guitar. 1 Tablatures and chords are parodies/interpretations of the original songs. You may use it for private study, scholarship, research or language learning purposes only