» » »

Carissa\\S Wierd, Ugly Valentine Tabs (ver.1)

Artists:  A B C D E F G H I J K L M N O P Q R S T U V W X Y Z # 

Ugly Valentine Tabs (ver.1)

Carissa\\S Wierd Tabs
Rating:
0/5 (0 votes)
Hard to play? Try these video lessons and learn fast.
                Carissa's Wierd broke up in 2003. Tabs are rare to come across for this awesome
band so I am going to attempt to make them more available.

Note: This is a song usually played by 2 guitars but I combined the parts to one
and therefore the fingering is a little weird until you get used to it. Also, for
the chords I could not find the names of 3 of them so they are simply assigned z1,
z2, and z3 as follows:

 z1     Gsus4  z2     z3
|3------3------3------3-------|
|1------1------1------1-------|
|0------0------0------0-------|
|3------0------0------0-------|
|0------3------0------0-------|
|x------x------3------x-------|

                                                     z2
Intro:
|--3---3---3---3-|--3---3---3---3-|--3---3---3---3-|-3--------------|
|-1-1-1-1-1-1-1-1|-1-1-1-1-1-1-1-1|-1-1-1-1-1-1-1-1|-1--------------|
|----------------|----------------|----------------|-0--------------|
|3---3-----------|----------------|3---3-----------|-0--------------|
|--------3---3---|--------0---0---|--------3---3---|-0--------------|
|----------------|3---3-----------|----------------|-3--------------|


z1                       Gsus4
So they're all gone now, that took a long time. 

z2                  z3
 You're the only one who'd be my valentine

z1                 Gsus4
 I didn't want that to drive you crazy

z2                       z3
 I should have done something, I guess I'm lazy


|--3---3---3---3-|--3---3---3---3-|
|-1-1-1-1-1-1-1-1|-1-1-1-1-1-1-1-1|
|----------------|----------------|
|3---3-----------|----------------| =======x5
|--------3---3---|--------0---0---|
|----------------|3---3-----------|

    Feeling down low now......


|--3---3---3---3-|--3---3---3---3-|
|-1-1-1-1-1-1-1-1|-1-1-1-1-1-1-1-1|
|----------------|----------------|
|3---3-----------|----------------|
|--------3---3---|----------------|
|----------------|3---3---3---3---|


|--3---3---3---3-|--3---3---3---3-|
|-1-1-1-1-1-1-1-1|-1-1-1-1-1-1-1-1|
|----------------|----------------|
|----------------|----------------| ====repeat for a bunch of measures
|0---0-----------|----------------|
|--------3---3---|1---1---1---1---|


|--3---3---3---3-|--3---3---3---3-|
|-1-1-1-1-1-1-1-1|-1-1-1-1-1-1-1-1|
|----------------|----------------|
|----------------|----------------| ====repeat for the rest of the song
|0---0---3-------|----------------|(listen for when music changes to this)
|------------3---|1---1---1---1---|
            

comments powered by Disqus
↑ Back to top | Carissa\\S Wierd Tabs for Ugly Valentine. Lyrics for acoustic guitar and electric guitar. Tablatures and chords are parodies/interpretations of the original songs. You may use it for private study, scholarship, research or language learning purposes only