» » »

Carissa'S Wierd, To Be There Now Tabs (ver.1)

Artists:  A B C D E F G H I J K L M N O P Q R S T U V W X Y Z # 

To Be There Now Tabs (ver.1)

Carissa'S Wierd Tabs
 Rating:
4/5 (4 votes)
To Be There Now lessons Tabs too difficult? Try these video lessons and learn fast
                song      : to be there now
artist    : carissa's wierd


standard tuning, 1/2 step down


VERSE - guitar 1

e-|--------------------------------|
b-|--------------------------------|
g-|4--6----9-------4--6------------|
d-|------------------------9-------|
a-|--------------------------------|
E-|5--7----9-------5--7----9-------|


VERSE - guitar 2 - with reverb

g-|2-2-2-2-1-1-2-2-1-1-2-2-1-1-2

g-|2-2-2-2-1-2-2-2-1-2-2-2-1-2-2


CHORUS - guitar 1 - repeat as necessary, end on E

e-|----------------|----------------|
b-|----------------|----------------|
g-|----------------|----------------|
d-|2-2-2-2-2-2-2-4-|4-4-4-4-4-4-4---|
a-|2-2-2-2-2-2-2-2-|2-2-2-2-2-2-2-2-|
E-|----------------|--------------0-|
   ^   ^   ^   ^    ^   ^   ^   ^   
   1   2   3   4    1   2   3   4   

e-|----------------|----------------|
b-|----------------|----------------|
g-|----------------|----------------|
d-|2-2-2-2-2-2-2-2-|2-2-2-2-2-2-2-2-|
a-|2-2-2-2-2-2-2-2-|2-2-2-2-2-2-2-2-|
E-|4-4-4-4-4-4-4-0-|0-0-0-0-0-0-0-0-|
   ^   ^   ^   ^    ^   ^   ^   ^   
   1   2   3   4    1   2   3   4   


CHORUS - guitar 2

e-|----------------|----------------|
b-|----------------|--17------17----|
g-|----------------|16------16------|
d-|--------------14|------14--------|
a-|----------------|----------------|
E-|----------------|----------------|
   ^   ^   ^   ^    ^   ^   ^   ^   
   1   2   3   4    1   2   3   4   

e-|---------------------------------|
b-|--------------17|------16------17|
g-|------------16--|----16------16--|
d-|----------14----|--14------14----|
a-|----------------|----------------|
E-|----------------|----------------|
   ^   ^   ^   ^    ^   ^   ^   ^   
   1   2   3   4    1   2   3   4   

e-|---------------------------------|
b-|------17------16|------16------17|
g-|----16------16--|----16------16--|
d-|--14------14----|--14------14----|
a-|----------------|----------------|
E-|----------------|----------------|
   ^   ^   ^   ^    ^   ^   ^   ^   
   1   2   3   4    1   2   3   4   

e-|----------------|----------------|
b-|------17------17|------17------17|
g-|----16------16--|----16------16--|
d-|--14------14----|--14------14----|
a-|----------------|----------------|
E-|----------------|----------------|
   ^   ^   ^   ^    ^   ^   ^   ^   
   1   2   3   4    1   2   3   4  

e-|----------------|----------------|
b-|------17--------|------16------17|
g-|----16------16--|----16------16--|
d-|--14------14----|--14------14----|
a-|----------------|----------------|
E-|----------------|----------------|
   ^   ^   ^   ^    ^   ^   ^   ^   
   1   2   3   4    1   2   3   4   

e-|----------------|----------------|
b-|------17------16|------16--------|
g-|----16------16--|----16------16--|
d-|--14------14----|--14------14----|
a-|----------------|----------------|
E-|----------------|----------------|
   ^   ^   ^   ^    ^   ^   ^   ^   
   1   2   3   4    1   2   3   4   

e-|----------------|----------------|----------------|
b-|------17------16|------16------17|------17--------|
g-|----16------16--|----16------16--|----16------16--|
d-|--14------14----|--14------14----|--14------14----|
a-|----------------|----------------|----------------|
E-|----------------|----------------|----------------|
   ^   ^   ^   ^    ^   ^   ^   ^    ^   ^   ^   ^   
   1   2   3   4    1   2   3   4    1   2   3   4   


OUTRO - guitar 1 - so just to be there now...

e-|--------------------------------|
b-|--------------------------------|
g-|4-4-4-4-4-4-4-4-4-4-4-4-4-4-4---|
d-|4-4-4-4-4-4-4-4-4-4-4-4-4-4-4---|
a-|2-2-2-2-2-2-2-2-2-2-2-2-2-2-2---|
E-|------------------------------0-|

e-|--------------------------------|
b-|--------------------------------|
g-|4-4-4-4-4-4-4-4-4-4-4-4-4-4-4---|
d-|2-2-2-2-2-2-2-2-2-2-2-2-2-2-2---|
a-|2-2-2-2-2-2-2-2-2-2-2-2-2-2-2---|
E-|4-4-4-4-4-4-4-4-4-4-4-4-4-4-4-0-|

e-|--------------------------------|
b-|--------------------------------|
g-|4-4-4-4-4-4-4-4-4-4-4-4-4-4-4-4-|
d-|2-2-2-2-2-2-2-2-2-2-2-2-2-2-2-2-|
a-|0-0-0-0-0-0-0-0-0-0-0-0-0-0-0-0-|
E-|--------------------------------|

e-|--------------------------------|
b-|--------------------------------|
g-|6-6-6-6-6-6-6-6-6-6-6-6-6-6-6---|
d-|6-6-6-6-6-6-6-6-6-6-6-6-6-6-6---|
a-|4-4-4-4-4-4-4-4-4-4-4-4-4-4-4---|
E-|------------------------------0-|


OUTRO - guitar 2

e-|--------------------------------|
b-|--------------------------------|
g-|2-2-2-2-2-2-2-1-1-1-1-1-1-1-1-1/|
d-|--------------------------------|
a-|--------------------------------|
E-|--------------------------------|

e-|--------------------------------|
b-|--------------------------------|
g-|6-6-6-6-6-6-6-9-9-9-9-9-9-9-9-9\|
d-|--------------------------------|
a-|--------------------------------|
E-|--------------------------------|

b-|--------------------------------|
g-|2-2-2-2-2-2-2-1-1-1-1-1-1-1-1-1/|
d-|--------------------------------|
a-|--------------------------------|
E-|--------------------------------|

e-|--------------------------------|
b-|--------------------------------|
g-|6-6-6-6-6-6-6-9-9-9-9-9-9-9-9-9-|
d-|--------------------------------|
a-|--------------------------------|
E-|--------------------------------|


ENDING - guitar 1 & (2)

e-|--------------------------------|
b-|-------------------(17)----(17)-|
g-|-------------------(16)----(16)-|
d-|2-------2-------2-------2-------|
a-|2-------2-------2-------2-------|
E-|0-----0-0-------0-------0-------|

e-|--------------------------------|
b-|---(17)-----(17)----(17)---(16)-|
g-|---(16)-----(16)----(16)---(16)-|
d-|2-------2-------2-------2-------|
a-|2-------2-------2-------2-------|
E-|5-------5-------5-------5-------|

e-|--------------------------------|
b-|---(16)-----(16)----(16)---(17)-|
g-|---(16)-----(16)----(16)---(16)-|
d-|--------------------------------|
a-|7-------7-------7-------7-------|
E-|7-------7-------7-------7-------|

e-|--------------------------------|
b-|---(17)-----(17)----(17)---(16)-|
g-|---(16)-----(16)----(16)---(16)-|
d-|2-------2-------2-------2-------|
a-|2-------2-------2-------2-------|
E-|4-------4-------4-------4-------|

e-|--------------------------------|
b-|---(16)---(16)---(16)-----------|
g-|---(16)---(16)---(16)-----------|
d-|2-------------------------------|
a-|2-------------------------------|
E-|0-------------------------------|
            
Submit corrections

comments powered by Disqus
↑ Back to top | Carissa'S Wierd Tabs for To Be There Now. Lyrics for acoustic guitar and electric guitar. Tablatures and chords are parodies/interpretations of the original songs. You may use it for private study, scholarship, research or language learning purposes only