» » »

Carissa\\S Wierd, Low Budget Slow Motion Soundtrack Song Tabs (ver.1)

Artists:  A B C D E F G H I J K L M N O P Q R S T U V W X Y Z # 

Low Budget Slow Motion Soundtrack Song Tabs (ver.1)

Carissa\\S Wierd Tabs
 Rating:
4/5 (4 votes)
Low Budget Slow Motion Soundtrack Song lessons Tabs too difficult? Try these video lessons and learn fast
                Guitar 1 (capo on first fret, chords relative to capo) 

  G   Cmaj7  Em     C
e-3--|--x--|--0--|--0----------------
B-3--|--0--|--0--|--1----------------  
G-0--|--0--|--0--|--0----------------
D-0--|--2--|--2--|--2----------------
A-2--|--3--|--2--|--3----------------
E-3--|--x--|--0--|--x----------------

 Guitar 1- play this for the whole song

G  Cmaj7  Em  C


 Guitar 2 (play during intro)

e--------------------------------
B--------------------------------
G-8-6-8-8-8--8-6-8-8-8-----------
D--------------------------------
A--------------------------------
E--------------------------------


 Guitar 2 (verse)
e----------------------------------------------------------------
B----------------------------------------------------------------
G-8-6-3h6--8-6-3h6--8-6-3h6--8-6-3h6--8-6-3h6--8-6-3h6--8-6-3h6--
D----------------------------------------------------------------
A----------------------------------------------------------------
E----------------------------------------------------------------


e--------------------------------
B--------------------------------
G-8-6-8-8-8--8-6-8-8-8-----------
D--------------------------------
A--------------------------------
E--------------------------------
            
Submit corrections

comments powered by Disqus
↑ Back to top | Carissa\\S Wierd Tabs for Low Budget Slow Motion Soundtrack Song. Lyrics for acoustic guitar and electric guitar. Tablatures and chords are parodies/interpretations of the original songs. You may use it for private study, scholarship, research or language learning purposes only