» » »

Carissa\\S Wierd, Ignorant Piece Of Shit Tabs (ver.1)

Artists:  A B C D E F G H I J K L M N O P Q R S T U V W X Y Z # 

Ignorant Piece Of Shit Tabs (ver.1)

Carissa\\S Wierd Tabs
 Rating:
4/5 (4 votes)
Ignorant Piece Of Shit lessons Tabs too difficult? Try these video lessons and learn fast
                -------------------------------------------------------------------------------
                             Ignorant Piece Of sh*t - Carissa's Wierd
-------------------------------------------------------------------------------

Tuning: standard, 1/2 step down

e|-----------------------------------------------------------------------|
B|---3-----1-----0-----0-----0-----0-----3-----1-----0-----0-----0-----0-|
G|-----0-----0-----------0-----0-----------0-----0-----------0-----0-----|
D|-------2-----------------0-----------------2-----------------0---------|
A|-------------------------------------0-----------0-----3-----------3---|
E|-0-----------0-----3-----------3---------------------------------------|

e|-------------------------------------------------|
B|---0-----0-----0---0-----0-----0---0-----0-----0-|
G|-----0-----0---------0-----0---------0-----0-----|
D|-------0-----0---------0-----0---------0-----0---|
A|-3---------------3---------------3---------------|
E|-------------------------------------------------|

e|-------------------x-x-x----------------------x-x-x-|
B|---0-----1p0---0---x-x-x------0-----1p0---0---x-x-x-|
G|-----0-------0-----7-7-7--------0-------0-----5-5-5-|
D|-------0-----------7-7-7----------2-----------5-5-5-|
A|-------------------5-5-5----------------------3-3-3-|
E|-3-----------------x-x-x----0-----------------x-x-x-|



e|-0--0--0--0--0--0----0--0--0--0--0--0----0--0--0-|
B|-0--1--0--0--1--3----0--1--0--0--1--3----0--1--0-|
G|-0--0--0--0--0--0----0--0--0--0--0--0----0--0--0-|
D|-2--2--2--2--2--2----2--2--2--2--2--2----2--2--2-|
A|-3--3--3--3--3--3----3--3--3--3--3--3----3--3--3-|
E|-x--x--x--x--x--x----x--x--x--x--x--x----x--x--x-|


Em, G, Am, C
            
Submit corrections

comments powered by Disqus
↑ Back to top | Carissa\\S Wierd Tabs for Ignorant Piece Of Shit. Lyrics for acoustic guitar and electric guitar. Tablatures and chords are parodies/interpretations of the original songs. You may use it for private study, scholarship, research or language learning purposes only