» » »

Heather Rhodes Tabs (ver.2)

Artists:  A B C D E F G H I J K L M N O P Q R S T U V W X Y Z # 

Heather Rhodes Tabs (ver.2)

Carissa\\S Wierd
Rating:
0/5 (0 votes)

Tabs too difficult? Try these video lessons and learn fast.
                Band:   Carissa's Wierd
**This is another one of their tabbed songs I found on some obscure site.


intro/verse:
e--------------------|
B--------------------|
G--------------------|
D-5-5--6-6--5-5--3-3-|
A6-6--6-6--3-3--1-1--|
E--------------------|


outro:          end:
e-------------|----|
B-------------|----|
G------3------|----|
D---1-3--3-1--|-3--|
A-0----------0|-1--|
E-------------|----|
            
Tabs too difficult? Try these video lessons and learn fast.


comments powered by Disqus
↑ Back to top | Tablatures and chords are parodies/interpretations of the original songs. You may use it for private study, scholarship, research or language learning purposes only