» » »

Brooke Daniels Tiny Broken Fingers Tabs (ver.1)

Artists:  A B C D E F G H I J K L M N O P Q R S T U V W X Y Z # 

Brooke Daniels Tiny Broken Fingers Tabs (ver.1)

Carissa\\S Wierd
Rating:
0/5 (0 votes)

Hard to play? Try these video lessons and learn fast.
                Carissa's Wierd - Brooke Daniels' Tiny Broken Fingers.txt

Eb tuning


I had this tab in a program I use to play back the tabs.
symbols:
	* 	- ending of a note.
	()	- note volume is dampened.
	x	- strumming muted strings (no notes)


Guitar 1 - This plays until the ending breakdown.


:----0-1-----*------|----0-1-----*------|----0-1-----*------|------------1-0---|
:-------------------|-------------------|-------------------|-------------------|
:------------5------|------------5------|------------5------|----3-2-*----------|
:0-0---------*-(10)-|0-0---------*-(10)-|0-0---------*-(10)-|-------------------|
:--------1-1-*------|--------1-1-*------|--------1-1-*------|3-3-*---1-1-*------|
:-------------------|-------------------|-------------------|-------------------|


Breakdown Pt. 1


:----------------------------|----------------------------|
:----------------------------|----------------------------|
:7-(7)7-(7)7*----------------|5-(5)5-(5)5*----------------|
:7-(7)7-(7)7*--8-(8)8-(8)8*--|5-(5)5-(5)5*--8-(8)8-(8)8*--| Repeats 3 times
:5-(5)5-(5)5*--8-(8)8-(8)8*--|3-(3)3-(3)3*--8-(8)8-(8)8*--|
:--------------6-(6)6-(6)6*--|--------------6-(6)6-(6)6*--|


Breakdown Pt. 2


:----------------------------|----------------------------|
:----------------------------|----------------------------|
:7-(7)7-(7)7xxx--------------|5-(5)5-(5)5xxx--------------|
:7-(7)7-(7)7xxx8-(8)8-(8)8xxx|5-(5)5-(5)5xxx8-(8)8-(8)8xxx| Repeats 3 times
:5-(5)5-(5)5xxx8-(8)8-(8)8xxx|3-(3)3-(3)3xxx8-(8)8-(8)8xxx|
:--------------6-(6)6-(6)6xxx|--------------6-(6)6-(6)6xxx|


End

:----------------------------|
:----------------------------|
:--------------5-(5)5-(5)5*--|
:8-(8)8-(8)8*--5-(5)5-(5)5*--|
:8-(8)8-(8)8*--3-(3)3-(3)3*--|
:6-(6)6-(6)6*----------------|


Guitar 2 - This comes in around bar 9 and continues until the breakdown.

:-------------------|-------------------|-------------------|----------------|
:------1------------|------1------------|------1------------|----------------|
:----2-------3-(-0)-|----2-------3-(-0)-|----2-------3-(-0)-|5-5-5-5-5-5-5-5-|
:0-0----------------|0-0----------------|0-0----------------|5-5-5-5-5-5-5-5-|
:----------1--------|----------1--------|----------1--------|3-3-3-3-3-3-3-3-|
:-------------------|-------------------|-------------------|----------------|

The breakdown and ending part for Guitar two are the same as Guitar 1.


This song also has two violins (as far as I can tell) which tend to make tabbing out the 
harder.  I have most of the violin parts down in my program but the breakdown and 
is proving to be difficult to tab.



I believe the program is about $15 and is a nice one to mess around with.

dan
            
Hard to play? Try these video lessons and learn fast. | Correct




comments powered by Disqus
↑ Back to top | Tablatures and chords are parodies/interpretations of the original songs. You may use it for private study, scholarship, research or language learning purposes only