>
 >
My All

My All Guitar Tabs

Carey Mariah - My All chords, tabs, tablatures, lyrics

Guitar lessons | Add/correct | Request | Top 50 tabs Artists:  A B C D E F G H I J K L M N O P Q R S T U V W X Y Z 0-9

My All Guitar Tabs – Carey Mariah

CD, Sheet music, Poster

Do you like My All? Share with your friends now
Tabs
Tuning:Standard

Intro:
      F#m             Bm 7                C#                    F#m
e|-----2------0-|----------------|----------------------|-------------------2|
B|--2-----2-----|-----------3----|-----------2-------0--|---------------2----|
G|--------------|--------2-------|--------1------1------|--------0--2--------|
D|--------------|-----4----------|-----3----------------|------4-------------|
A|--------------|--2-------------|--4-------------------|----4---------------|
E|--------------|----------------|----------------------|--2-----------------|
       F#m              Bm                 C#                 F#m
e|-------2-----0-|----------------|---------------------|--------------------|
B|----2-----2----|--------------3-|------------2------0-|--------------------|
G|---------------|----------2-----|--------1------1-----|-----------0--2-----|
D|---------------|------4---------|-----3---------------|--------4-----------|
A|---------------|--2-------------|--4------------------|-----4--------------|
E|--2------------|----------------|---------------------|--2-----------------|
          F
e|---------------------------------------------------------------------------|
B|---------------------------------------------------------------------------|
G|--------3------------------------------------------------------------------|
D|------4--------------------------------------------------------------------|
A|----4----------------------------------------------------------------------|
E|--2------------------------------------------------------------------------|
Am thinking of you....
      F#m           Bm 7         C#                 F#m
e|-----2-----0-|------------|---------------|-----------------2--------------|
B|--2-----2----|--------3---|--------2---0--|-------------2------------------|
G|-------------|------2-----|------1---1----|--------2-----------------------|
D|-------------|----4-------|----3----------|------4-------------------------|
A|-------------|--2---------|--4------------|----4---------------------------|
E|-------------|------------|---------------|--2-----------------------------|
       F#m             Bm 7                C#                F#M
e|---------2-----0-|----------------|------------------|---------------------|
B|------2----2-----|-----------3----|----------2-----0-|---------------------|
G|-----------------|--------2-------|--------1----1----|-----------2---------|
D|-----------------|-----4----------|-----3------------|--------4------------|
A|-----------------|--2-------------|--4---------------|-----4---------------|
E|--2--------------|----------------|------------------|--2------------------|
      F#m(on E)            D                  C#             F#m
e|-----------------|---------------------|--------------|-------------2------|
B|-----------------|-----------0---------|-----------0--|---------2----------|
G|-----------2-----|--------2-----2---1--|--------1-----|-----2--------------|
D|--------4--------|-----4---------------|-----3--------|----4---------------|
A|-----4-----------|--5------------------|--4-----------|---4----------------|
E|--0--------------|---------------------|--------------|--2-----------------|
Chorus:
        Bm 7               C#               F#m             F#m(on E)
e|-----------2----|------------------|-----------------|---------------------|
B|-----------3----|------------2---0-|-----------------|---------------------|
G|--------2-------|--------1---------|--2------------2-|-----------2---------|
D|-----4----------|-----3------------|------------4----|--------4------------|
A|--2-------------|--4---------------|---------4-------|-----4---------------|
E|----------------|------------------|------2----------|--0------------------|
          D                  Bm 7              E9 
e|--------------------|------------2--|------------2---0---0-----------------|
B|-----------3--------|------------3--|--------3-----------------------------|
G|--------2-----------|---------2-----|----1---------------------------------|
D|-----4--------------|-----4---------|--------------------------------------|
A|--5--------------4--|--2------------|--------------------------------------|
E|--------------------|---------------|--0-----------------------------------|
         Amaj 7                 D              Bm(on G#)       G
e|--------------0---------|--------------|----------------|------------------|
B|----------2-------2-----|-----------3--|-----------3----|----------0-------|
G|------1--------------1--|--------2-----|--------4-------|--------3---------|
D|------------------------|-----4--------|-----4----------|-------4----------|
A|--0---------------------|--5-----------|----------------|-----4------------|
E|------------------------|--------------|--4-------------|--3---------------|
       F#m            F#m(on E)         |              Bm 7
e|----------------|---------------|-----------2---|-------------2------------|
B|----------------|---------------|--------2------|-------------3------------|
G|------------2---|-----------2---|-----2---------|----------2---------------|
D|---------4------|--------4------|--1------------|------4-------------------|
A|-----4----------|-----4---------|---------------|--2-----------------------|
E|--2-------------|--0------------|---------------|--------------------------|
       C#                F#m          back to first line for verse 2
e|-------------1--|---------------------------2------------------------------|
B|-------------2--|--------------------2-------------------------------------|
G|----------1-----|-------------2--------------------------------------------|
D|------3---------|---------4------------------------------------------------|
A|--4-------------|------4---------------------------------------------------|
E|----------------|--2-------------------------------------------------------|



I am thinking of you
In my sleepless solitude tonight
If it's wrong to love you
Then my heart just won't let me right
'Cause I've drowned in you
And I won't pull through
Without you by my side 

Chorus:
I'd give my all to have
Just one more night with you
I'd risk my life to feel
Your body next to mine
'cause I can't let go on
Living in the memory of your song
I'd give my all for your love tonight 

Baby can you feel me
Imagining I'm looking in your eyes
I can see you clearly
Vividly emblazoned in my mind
And yet you're so far
Like a distant star
I'm wishing on tonight 

Chorus 

** Guitar Break 

Chorus
Give my all for your love
Tonight





Comments


Popular Carey Mariah tabs & chords
All I Want For Christmas Chords
Cant Take That Away Chords
Hero Chords
All I Want For Christmas Tabs
Heartbreaker Tabs
Honey Tabs
Honey 1 Tabs
I Give My All Tabs
My All (Solo) Tabs
Without You Tabs


Song lyrics



↑ Back to top | Tablatures and chords are parodies/interpretations of the original songs. You may use it for private study, scholarship, research or language learning purposes only
© 2014 AZChords.com Contact us | Privacy policy | DMCA | Add/correct tabs | Request tabs | Top 50 tabs