» » »

Carey Mariah, Alwasy Be My Baby Tabs (ver.1)

Artists:  A B C D E F G H I J K L M N O P Q R S T U V W X Y Z # 

Alwasy Be My Baby Tabs (ver.1)

Carey Mariah Tabs
Rating:
0/5 (0 votes)
Hard to play? Try these video lessons and learn fast.
                Mariah Carey
Daydream

Guitar 1 is an acoustic-electric guitar that uses a delay effect.
I think there is a guitar 2 but I can't seem to transcribe it.

This thing should get you started playing the song.

Intro
Guitar 1
e--4---0-2-0-----0-2-0----------0h2-0-----0-2-0-2--
B----0-------0-0------------2-5-------0-0----------
G----------------------4--4------------------------
D--------------------------------------------------
A--------------------------------------------------
E--------------------------------------------------

e--4---0-2-0-----0-2-0----------0h2-0-----0-2-0----
B----0-------0-0------------2-5-------0-0----------
G----------------------4--4---------------------4--
D--------------------------------------------------
A--------------------------------------------------
E--------------------------------------------------

Lyrics:
We were as one 
For a moment in time
And it seemed everlasting
That you would always be mine
Now you want to be free
So I'll let you fly
'Cause I know in my heart
Our love will never die

You'll always be a part of me
i'm part of you indefinitely
Boy don't you know you can't escape me
Ooh darling 'cause you'll always be my baby
And we'll linger on
Time can't erase a feeling this strong
Now way you're ever gonna shake me
Oh darling 'cause you'll always be my baby

I ain't gonna cry
And I won't beg you to stay
If you're dtermined to leave boy
I will not stand in your way
But inevitably, you'll be back again
'Cause you know in your heart babe
Our love will never end

You'll always be a part of me
i'm part of you indefinitely
Boy don't you know you can't escape me
Ooh darling 'cause you'll always be my baby
And we'll linger on
Time can't erase a feeling this strong
Now way you're ever gonna shake me
Oh darling 'cause you'll always be my baby

I know that you'll be back boy
When your days and your nights get a little bit colder
I know that you'll be right back baby
Oh baby believe me it's only a matter of time

You'll always be a part of me
i'm part of you indefinitely
Boy don't you know you can't escape me
Ooh darling 'cause you'll always be my baby
And we'll linger on
Time can't erase a feeling this strong
Now way you're ever gonna shake me
Oh darling 'cause you'll always be my baby

Key:
/ -slide up
\ -slide down
h - hammer on
p -pull off
x -muted string
p.m. -palm mute
b -bend

Hi to all the people of the Philippines especially all the 
students of CSA!
            

comments powered by Disqus
↑ Back to top | Carey Mariah Tabs for Alwasy Be My Baby. Lyrics for acoustic guitar and electric guitar. Tablatures and chords are parodies/interpretations of the original songs. You may use it for private study, scholarship, research or language learning purposes only