» » »

Loss Of Words Bass tabs (ver.1)

Artists:  A B C D E F G H I J K L M N O P Q R S T U V W X Y Z # 

Loss Of Words Bass tabs (ver.1)

Career Soldiers
Rating:
0/5 (0 votes)

Hard to play? Try these video lessons and learn fast.
                Intro

------------------------------------------------|
-------------------0----------0---3-----0-------|
--------3~~~~~~--6---1------6---1-----6---1-----| x2
-333333----------------3--------------------3---|

---------------------------------------------|
---------------------------------------------|
--------3~~~~~~-3~~~~~~-3~~~~~~-3~~~~~~-3333-|
-333333--------------------------------------|

Verse

----------------------------------------------|
----------------3333--------------------------|
-3333------6666------55-3-55-3-55-3-55-3------|
------3333-------------------------------3333-|

Chorus

-----------------------------------------------------------------------------|
-----------------0---------------------0---333333333333-----0----------------|
-333333333333--6---1-----------------6---1----------------6---1--------------|
---------------------333333333333-------------------------------333333333333-|
            
Hard to play? Try these video lessons and learn fast. | Correct




comments powered by Disqus
↑ Back to top | Tablatures and chords are parodies/interpretations of the original songs. You may use it for private study, scholarship, research or language learning purposes only