» » »

I Don't Need It Tabs (ver.1)

Artists:  A B C D E F G H I J K L M N O P Q R S T U V W X Y Z # 

I Don't Need It Tabs (ver.1)

Career Soldiers
Rating:
0/5 (0 votes)

Hard to play? Try these video lessons and learn fast.
                ----------------------------------------------------------------------------

                       I dont need it - CAREER SOLDIERS

----------------------------------------------------------------------------

hi! i love this song!!!! this is my favourite band!



intro/ verse
|---------------------------------------------------------------------------|
|---------------------------------------------------------------------------|
|--55-5----88-8---55355355355355-5----88-8-5535535535535--------------------|
|--55-588-888-855-55355355355355-588-888-8-5535535535535let ring and play---|
|--33-388-866-655-33133133133133-388-866-6-3313313313313-last part 4 times--|
|------66-6----33-----------------66-6--------------------------------------|

|---------------------------------------------------------------------------|
|---------------------------------------------------------------------------|
|--5555555-7-888888-7-333333-2----------------------------------------------|
|--5555555-7-888888-7-333333-2-33333333-------------------------------------|
|--3333333-5-666666-5-111111-0-33333333-------------------------------------|
|------------------------------11111111-------------------------------------|

 it's all here!!!

 enjoy it
            
Hard to play? Try these video lessons and learn fast. | Correct




comments powered by Disqus
↑ Back to top | Tablatures and chords are parodies/interpretations of the original songs. You may use it for private study, scholarship, research or language learning purposes only