» » »

Career Soldiers, Fuck 5-0 Bass tabs (ver.1)

Artists:  A B C D E F G H I J K L M N O P Q R S T U V W X Y Z # 

Fuck 5-0 Bass tabs (ver.1)

Career Soldiers Tabs
Rating:
0/5 (0 votes)
Fuck 5-0 lessons Tabs too difficult? Try these video lessons and learn fast
                Career Soldiers
Finding Freedom in Hopelessness

Intro:
--------------------------------------|
-----------55-544-4-------------------|
---22-222-2--------00-000-055-544-4---|
--------------------------------------|


Verse:
--------------------------------------|
-----------55-522-200-022-2-----------|
---22-222-2----------------44-400-0---|
--------------------------------------|


Chorus:
-----------------------------------------------------------------|
---------------0000--------22-255-5-------------0000-------------|
---222222220000----22222222---------222222220000-----0-00-0000---|
-----------------------------------------------------------------|
            
Submit corrections

comments powered by Disqus
↑ Back to top | Career Soldiers Bass for Fuck 5-0. Lyrics for acoustic guitar and electric guitar. Tablatures and chords are parodies/interpretations of the original songs. You may use it for private study, scholarship, research or language learning purposes only