» » »

Cardigans, Step On Me Tabs (ver.1)

Artists:  A B C D E F G H I J K L M N O P Q R S T U V W X Y Z # 

Step On Me Tabs (ver.1)

Cardigans Tabs
Rating:
0/5 (0 votes)
Step On Me lessons Tabs too difficult? Try these video lessons and learn fast
                -------------------------------------------------------------------------------
                             Step On Me - Tha Cardigans
-------------------------------------------------------------------------------

Tuning: Standard (EADGBe)

Intro:
e|--------------------------------------------------------------|
B|--------------------------------------------------------------|
G|-x-x------------------------------------------------------x-x-|
D|-x-x-----------7---7-7-------------5---5-7b8r7-5--3--/5---x-x-|
A|-x-x---5---5/7---7---------3---3/5---5--------------------x-x-|
E|--------------------------------------------------------------|


Verse:
D                   Dm
Oh, I think you're standing
           Am
on my left foot
     A                    D
it's hurting, but that's OK
     A             D   Riff
cause I'm in your way
D                 Dm
You'll break that foot that
               Am
you're standing on
    A
I'll walk with the other one


Riff Verse 1:                    Riff Verse 2:
e|---------------------------|   e|--------------------------------------|
B|----10-12-12/14-12---------|   B|----10-12-12/14-12---12/14---12-10-12-|
G|-11-------12/14-12---14\11-|   G|-11-------12/14-12---12/14---12-11-12-|


Pre-Chorus:
e|---------------------------------------------------------|
B|---------------------------------------------------------|
G|---------------------------------------------------------|
D|---------------------------------------------------------|
A|--------6-5----------6--5-6--------6-5----------6--6-5-6-|
E|-6--5-6------6--5--6--------6--5-6------6--5--6----------|

e|----------------------------------------------------|
B|----------------------------------------3---4-------|
G|--------------------------------------3---3-----x-x-|
D|--------------------------------7---5-----------x-x-|
A|--------6-5----------6--5-6---8---8-------------x-x-|
E|-6--5-6------6--5--6--------6-----------------------|

Chorus:
e|-------------------------------------------------------------9----7---|
B|----------------------------------------------------/10-/10----10---8-|
G|----------------------------------------------------------------------|
D|---------7---7-7-------------5---5-7b8r7-5--3--/5---------------------|
A|-5---5/7---7---------3---3/5---5--------------------------------------|
E|----------------------------------------------------------------------|

e|--------------------------------------------------------|
B|--------------------------------------------------------|
G|----------------------------------------------------x-x-|
D|---------7---7-7-------------5---5-7b8r7-5--3--/5---x-x-|
A|-5---5/7---7---------3---3/5---5--------------------x-x-|
E|--------------------------------------------------------|
            
Submit corrections

comments powered by Disqus
↑ Back to top | Cardigans Tabs for Step On Me. Lyrics for acoustic guitar and electric guitar. Tablatures and chords are parodies/interpretations of the original songs. You may use it for private study, scholarship, research or language learning purposes only