» » »

My Favourite Game Tabs (ver.1)

Artists:  A B C D E F G H I J K L M N O P Q R S T U V W X Y Z # 

My Favourite Game Tabs (ver.1)

Cardigans
Rating:
4/5 (7 votes)

Hard to play? Try these video lessons and learn fast.
                
/ - slide
\ - slide from/into "nowhere"
p - pull-off
h - hammer-on
q - squeel
* - harmonic
x - mute
~ - vibrato
^ - half-note bend (one fret is half a note)
b - full-note bend
r - bend-release


this is the riff that makes this song special


|-----------------------------------------------------------------|
|-----------------------------------------------------------------|
|-----7^--7^r7--------7^--7^r7--------7^--7^r7--------7^-----r7---|
|-----------------------------------------------------------------|
|-----------------------------------------------------------------|
|-----------------------------------------------------------------|

Chorus riff and Verse riff (can be played 2 ways, they both pretty much sound the same 
figure nr 1 is a little thicker)
Figure nr 1
|-----------------------------------------------------------------|
|-1-1-1-1-1-1-1-1-1-1-1-1-1-1-1-1---------------------------------|
|-0-0-0-0-0-0-0-0-3-3-3-3-3-3-3-3-2-2-2-2-2-2-2-2-5-5-5-5/7-7-7-7-|
|-1-1-1-1-1-1-1-1-3-3-3-3-3-3-3-3-3-3-3-3-3-3-3-3-6-6-6-6/8-8-8-8-|
|-3-3-3-3-3-3-3-3-1-1-1-1-1-1-1-1-3-3-3-3-3-3-3-3-6-6-6-6/8-8-8-8-|
|---------------------------------1-1-1-1-1-1-1-1-4-4-4-4/6-6-6-6-|

Figure nr 2
|-----------------------------------------------------------------|
|-----------------------------------------------------------------|
|-------------------------------------------------5-5-5-5/7-7-7-7-|
|-10101010101010108-8-8-8-8-8-8-8-3-3-3-3-3-3-3-3-6-6-6-6/8-8-8-8-|
|-10101010101010108-8-8-8-8-8-8-8-3-3-3-3-3-3-3-3-6-6-6-6/8-8-8-8-|
|-8-8-8-8-8-8-8-8-6-6-6-6-6-6-6-6-1-1-1-1-1-1-1-1-4-4-4-4/6-6-6-6-|

Soft bass part

|-----------------------------------------------------------------|
|-----------------------------------------------------------------|
|-----------------------------------------------------------------|
|-----------------------------------------------------------------|
|-10101010101010106-6-6-6-6-6-6-6-8-8-8-8-8-8-8-8-3-3-3-3-3-3-3-3-|
|-8-8-8-8-8-8-8-8-4-4-4-4-4-4-4-4-6-6-6-6-6-6-6-6-1-1-1-1-1-1-1-1-|
 losing my favourite game...

Bridge, i think this is right...
|-----------------------------------------------------------------|
|-1---1---1---1---1---1---1---1-------------------1---1---1---1---|
|-0---0---0---0---3---3---3---3---5---5---5---5---3---3---3---3---|
|-1---1---1---1---3---3---3---3---6---6---6---6---3---3---3---3---|
|-3---3---3---3---1---1---1---1---6---6---6---6---1---1---1---1---|
|---------------------------------4---4---4---4-------------------|

so, thats it.


Please be aware that i tabbed this at 1:30 am and im very tired and listen to the song 
very low volume, if you wonder why some parts might not be right.
            
Hard to play? Try these video lessons and learn fast. | Correct




comments powered by Disqus
↑ Back to top | Tablatures and chords are parodies/interpretations of the original songs. You may use it for private study, scholarship, research or language learning purposes only