» » »

Cardigans, My Favourite Game Bass tabs (ver.2)

Artists:  A B C D E F G H I J K L M N O P Q R S T U V W X Y Z # 

My Favourite Game Bass tabs (ver.2)

Cardigans Tabs
 Rating:
4/5 (4 votes)
My Favourite Game lessons Tabs too difficult? Try these video lessons and learn fast
1
                Riff #1
G|-----|
D|-----|
A|-----|
E|-3/8-|     1x

Riff #2
G|----------------------------------|
D|----------------------------------|
A|----------------------------------|
E|-88-888-866-666-611-111-144-466-6-|     7x

Riff #3
G|--------------|
D|--------------|
A|--------------|
E|-8~-------3-6-|     2x

Riff #4
G|-----------------|
D|-----------------|
A|-----------------|
E|-8--4--1--6--3/8-|

Riff #2     3x

Riff #5
G|----------------------------------|
D|----------------------------------|
A|----------------------------------|
E|-88-888-866-666-655-555-544-466-6-|

Riff #2     2x

Riff #5     1x

Riff #3     2x

Riff #6
G|---------------|
D|---------------|
A|---------------|
E|-8--4--6--3--6-|     2x

Riff #7
G|---------------|
D|---------------|
A|---------------|
E|-8--4--1--6--3-|

Riff #2     1x

Riff #8
G|-----|
D|-----|
A|-----|
E|-8-9-|     6x

Riff #4     1x

Riff #2     2x

Riff #9
G|---------------------------------|
D|---------------------------------|
A|---------------------------------|
E|-611-111-144-466-611-111-144-466-|
            
Submit corrections

comments powered by Disqus
↑ Back to top | Cardigans Bass for My Favourite Game. Lyrics for acoustic guitar and electric guitar. 1 Tablatures and chords are parodies/interpretations of the original songs. You may use it for private study, scholarship, research or language learning purposes only