>
 >
Little Black Cloud

Little Black Cloud Guitar Tabs

Cardigans - Little Black Cloud chords, tabs, tablatures, lyrics

Guitar lessons | Add/correct | Request | Top 50 tabs Artists:  A B C D E F G H I J K L M N O P Q R S T U V W X Y Z 0-9

Little Black Cloud Guitar Tabs – Cardigans

CD, Sheet music, Poster

Do you like Little Black Cloud? Share with your friends now
ChordsTabsUkulele


Standard tuning


*Listen to the song to get the timing

CHORDS(not quite sure with some of the names)

Em  : 022000 OR X7998X
D   : XX0232
D5  : X577XX
C   : 032010
C/B : X20010
C/A : X00010
C/G : 3X0010
Bm  : X24432
Bb  : X13331
Am  : X02210
G   : 355433


INTRO:

   Em                 D                C                 C/B    C/A    C/G
e|-0-0---------------------------------------------------------------------|
B|-0-0-0-----0-----0----0-----0-----0----0-----0------0----0------0------0-|
G|-0-0---0-----0----------0-----0----------0-----0-----------0------0------|
D|-2-2-----2-----2----0-----0-----0----------------------------------------|
A|-2-2---------------------------------3-----3------3----2------0----------|
E|-0-0-----------------------------------------------------------------3---|
   ^ v

VERSE:

    Em                D                C                 C/B    C/A   C/G
e|------------------------------------------------------------------------|
B|----0-----0-----0----0-----0-----0----0-----0------0----0------0------0-|
G|------0-----0----------0-----0----------0-----0-----------0------0------| 2X
D|--2-----2-----2----0-----0-----0----------------------------------------|
A|------------------------------------3-----3------3----2------0----------|
E|--------------------------------------------------------------------3---|

A black cloud's hanging over the town tonight
But I don't mind, I don't mind
There's a cold breeze cutting through the summer air
But I'm not scared, I don't care
          D               C-C/B-C/A
'Cause we dance the night away
      D               C-C/B-C/A
Let's dance the night away, yeah!


VERSE:

    Em                D                C                 C/B    C/A   C/G
e|------------------------------------------------------------------------|
B|----0-----0-----0----0-----0-----0----0-----0------0----0------0------0-|
G|------0-----0----------0-----0----------0-----0-----------0------0------| 3X
D|--2-----2-----2----0-----0-----0----------------------------------------|
A|------------------------------------3-----3------3----2------0----------|
E|--------------------------------------------------------------------3---|

The black cloud's whispering into my ear
But I don't hear, I won't hear
'Cause the arms that hold me want an eye to eye
He's touching me, And I don't mind
      D               C-C/B-C/A  
As we dance the night away
      D               C-C/B-C/A
Let's dance the night away


CHORUS:
   C
Oh yeah!
    C/B     C/A    C/G  C
The music wants me to---night
     C/B       C/A     C/G  D
What time will you let me   down
  C         C/B    C/A  D    
I look pretty good to---night
   C-C/B-C/A
Oh yeah!

             C                C/B
          e|----------------------------------|
          B|---1-----1-----1----1-----3-----0-|
          G|-----0-----0----------0-----0-----| 2X
          D|----------------------------------|
          A|-3-----3-----3----2-----2-----2---|
          E|----------------------------------|
Little black cloud
Little black cloud
                 Bm    Bb   Am
I don't wanna go home

e|---------------------------|
B|------------9--11--12--11--|
G|------------7--9---10--9---|
D|-9--11--12-----------------|
A|-7--9---10-----------------|
E|---------------------------|


VERSE:

   Em   D    Em   D Em
e|--------------------7-|
B|-8-8-------8-8----8---|
G|-9-9--7-7--9-9--7-----|
D|-9-9--7-7--9-9--7-----|
A|-7-7--5-5--7-7--5-----|
E|----------------------|

The black cloud's circling over me tonight
But I don't mind, And you don't mind

    Em                D                C                 C/B    C/A   C/G
e|------------------------------------------------------------------------|
B|----0-----0-----0----0-----0-----0----0-----0------0----0------0------0-|
G|------0-----0----------0-----0----------0-----0-----------0------0------| 
D|--2-----2-----2----0-----0-----0----------------------------------------|
A|------------------------------------3-----3------3----2------0----------|
E|--------------------------------------------------------------------3---|

If you're cold I'll tell you it's the summer breeze
Just dance with me, We'll be alright


CHORUS:
   C
Oh yeah!
    C/B     C/A    C/G  C
The music wants me to---night
     C/B       C/A     C/G  D
What time will you let me   down
  C         C/B     C/A  D    
I look pretty great to---night
   C-C/B-C/A
Oh yeah!

             C                C/B
          e|----------------------------------|
          B|---1-----1-----1----1-----3-----0-|
          G|-----0-----0----------0-----0-----| 2X
          D|----------------------------------|
          A|-3-----3-----3----2-----2-----2---|
          E|----------------------------------|
Little black cloud
Little black cloud
I'm not done yet


INTERLUDE:

Em   G   C   C/B   C/A
Bm   Bb  Am

e|----------------------|
B|------------9--11--12-|
G|------------7--9---10-|
D|-9--11--12------------|
A|-7--9---10------------|
E|----------------------|


CHORUS:
             C
Hey, look at me!
    C/B     C/A    C/G  C
The music wants me to---night
     C/B       C/A     C/G  D
What time will you let me   down
  C         C/B     C/A  D    
I look pretty great to---night
   C-C/B-C/A
Oh yeah!

             C                C/B
          e|----------------------------------|
          B|---1-----1-----1----1-----3-----0-|
          G|-----0-----0----------0-----0-----| 2X
          D|----------------------------------|
          A|-3-----3-----3----2-----2-----2---|
          E|----------------------------------|
Little black cloud
Little black cloud
I don't wanna go home


OUTRO:

Em  G 4X

I'm not done yet
I'm not done yet

end on Em





Comments


Popular Cardigans tabs & chords
Drip Drop Teardrop 1 Chords
For What Is Worth Chords
Great Divide Chords
My Favourite Game 2 Chords
Holy Love Tabs
Losing My Favourite Game Tabs
My Favorite Game Tabs
My Favourite Game 1 Tabs
My Favourite Game 3 Tabs
Losing A Friend Ukulele


Song lyrics



↑ Back to top | Tablatures and chords are parodies/interpretations of the original songs. You may use it for private study, scholarship, research or language learning purposes only
© 2014 AZChords.com Contact us | Privacy policy | DMCA | Add/correct tabs | Request tabs | Top 50 tabs