» » »

Cardigans, Hangin Around Bass tabs (ver.1)

Artists:  A B C D E F G H I J K L M N O P Q R S T U V W X Y Z # 

Hangin Around Bass tabs (ver.1)

Cardigans Tabs
Rating:
0/5 (0 votes)
Hangin Around lessons Tabs too difficult? Try these video lessons and learn fast
                Cardigans - Hangin' Around
Gran Tourismo
 
Verse
G |--------------------------------|--------------------------------|
D |--------------------------------|--------------------------------|
A |-6-6---4-6-6-----6-6---4-6-6----|-4-4-----4-4-----2-2-----2-2---4|
E |---------------4---------------4|-------4-------2-------2--------|
 
G |--------------------------------|
D |--------------------------------|
A |-6-6---4-6-6---4-6~~------------|
E |--------------------------------|
 

Chorus
G |--------------------------------|--------------------------------|
D |--------------------------------|--------------------------------| E=14
A |-7-7-7-7-7-7-7-7\E-E-E-E-E-E-E-E|-F-F-F-F-F-F-F-F/A-A-A-A-A-A-A-A| F=15
E |--------------------------------|--------------------------------| A=10
 
G |--------------------------------|--------------------------------|
D |--------------------------------|--------------------------------|
A |-7-7-7-7-7-7-7-7\2-2-2-2-2-2-2-2|-3-3-3-3-3-3-3-3----------------|
E |--------------------------------|-----------------3-3-3-3-3-3-3--|
 
G |--------------------------------|--------------------------------|
D |--------------------------------|--------------------------------|
A |-6-6-6-6-6-6-6-6\1-1-1-1-1-1-1-1|-2-2-2-2-2-2-2-2/9-9-9-9-9-9-9-9|
E |--------------------------------|--------------------------------|
 
G |--------------------------------|--------------------------------|
D |--------------------------------|--------------------------------|
A |-6-6-6-6-6-6-6-6\1-1-1-1-1-1-1-1|-E-E-E-E-E-E-E-E/9-9-9-9-9-9-9-9|
E |--------------------------------|--------------------------------|
 
G |--------------------------------|
D |--------------------------------|
A |-4-4-4-4-4-4-4-2-2-2-2-2-2-2-2-2|
E |--------------------------------|
 

Verse
G |--------------------------------|--------------------------------|
D |--------------------------------|--------------------------------|
A |-6-6---4-6-6-----6-6---4-6-6----|-4-4-----4-4-----2-2-----2-2---4|
E |---------------4---------------4|-------4-------2-------2--------|
 
G |--------------------------------|
D |--------------------------------|
A |-6-6---4-6-6---4-6~~------------|
E |--------------------------------|
 
Outro A
G |--------------------------------|
D |--------------------------------|
G |------------\9/--2-2-2-2-2-2-2-2|
D |--------------------------------|
 
Outro B
G |--------------------------------|--------------------------------|
D |--------------------------------|--------------------------------|
G |-6-6-6-6-6-1-1-1-2-2-2-2-2-2-2-2|-9-9-9-9-9-4-4-4-2-2-2-2-2-2-2-2|
D |--------------------------------|--------------------------------|
 

[00:42] Verse
[00:54] Chorus
 
[01:52] Verse (Play the first bar twice)
[02:07] Chorus
 
[03:04] Outro A
[03:08] Outro B 4x (But end halfway the last bar)
            

comments powered by Disqus
↑ Back to top | Cardigans Bass for Hangin Around. Lyrics for acoustic guitar and electric guitar. Tablatures and chords are parodies/interpretations of the original songs. You may use it for private study, scholarship, research or language learning purposes only