» » »

Erase / Rewind Tabs (ver.2)

Artists:  A B C D E F G H I J K L M N O P Q R S T U V W X Y Z # 

Erase / Rewind Tabs (ver.2)

Cardigans
Rating:
5/5 (2 votes)

Hard to play? Try these video lessons and learn fast.
                "(Intro)
1|-0--------------------------|
2|-0--------------------------|
3|-0--------------------------|
4|-2----------0---------------|
5|-2------------2--0--2/4---0-|
6|-0----0-2-3-----------------|


1|-----------------------|
2|-----------------------|
3|-----------------------|
4|-------0---------------|
5|---------2-0-2-0-2/4-0-|
6|-0-2-3-----------------|


1|-0--------------------------|
2|-0--------------------------|
3|-0--------------------------|
4|-2----------0---------------|
5|-2------------2--0--2/4---0-|
6|-0----0-2-3-----------------|


1|-----------------------|
2|-----------------------|
3|-----------------------|
4|-------0---------------|
5|---------2-0-2-0-2/4-0-|
6|-0-2-3-----------------|


1|------------0-|
2|------------0-|
3|------------0-|
4|------0---0-2-|
5|-----0---0 -2-|
6|-0-3----2---0-|
"            
Hard to play? Try these video lessons and learn fast. | Correct




comments powered by Disqus
↑ Back to top | Tablatures and chords are parodies/interpretations of the original songs. You may use it for private study, scholarship, research or language learning purposes only