>
 >
Communication

Communication Guitar Tabs

Cardigans - Communication chords, tabs, tablatures, lyrics

Guitar lessons | Add/correct | Request | Top 50 tabs Artists:  A B C D E F G H I J K L M N O P Q R S T U V W X Y Z 0-9

Communication Guitar Tabs – Cardigans

CD, Sheet music, Poster

Do you like Communication? Share with your friends now
Bass TabsChordsTabsTabs v2Ukulele
			   Communication - The Cardigans

Tuning: Standard

Capo 2nd Fret(All Chord and Tabs related the the capo)


Intro:
e|----------------------------------------------|
B|-----0h1-----1-------0h1-------1-------0h1----|
G|---0-------0---0---0---------0---0---0--------|
D|-3-------2-------3-------0-2-------3----------|
A|--------------------------------------------3-|
E|----------------------------------------------|

Verse: 
   G                               Am
e|-----------------------------------------------------------------|
B|-0-------0-------0-------0-------1-------1-------1-------1-------|
G|-----0-------0-------0-------0-------2-------2-------2-------2---|
D|---0---0---0---0---0---0---0---0---2---2---2---2---2---2---2---2-|
A|-----------------------------------------------------------------|
E|-----------------------------------------------------------------|
   F                               C
e|-----------------------------------------------------------------|
B|-1-------1-------1-------1-------1-------1-------1-------1-------|
G|-----2-------2-------2-------2-------0-------0-------0-------0---|
D|---3---3---3---3---3---3---3---3---2---2---2---2---2---2---2---2-| x3
A|-----------------------------------------------------------------|
E|-----------------------------------------------------------------|

4th time:
  G                                Am
e|-----------------------------------------------------------------|
B|-0-------0-------0-------0-------1-------1-------1-------1-------|
G|-----0-------0-------0-------0-------2-------2-------2-------2---|
D|---0---0---0---0---0---0---0---0---2---2---2---2---2---2---2---2-|
A|-----------------------------------------------------------------|
E|-----------------------------------------------------------------|
  F                                C               Em              F
e|-------------------------------------------------------------------|
B|-1-------1-------1-------1-------1-------1-------0-------0-------1-|
G|-----2-------2-------2-------2-------0-------0-------0-------0---2-|
D|---3---3---3---3---3---3---3---3---2---2---2---2---2---2---2---2-3-|
A|-----------------------------------------------------------------3-|
E|-------------------------------------------------------------------|

Chorus:
                   F      C
  But that's not an invitation
G              F
  That's all I get
      F             C
  If this is communication
G         F 
  I disconnect
       F
  I've seen you, I know you
      C          E
  But I don't know
            Am   Asus4
  How to connect, so I disconnect


Solo:
e|--------------------------------------------------------------------------------------------|
B|-----0h1------------------3/5\3-2-3/5---\3---3/5\3-2-3/5---\3---3/5\3-2-2-----------------2-|
G|---0----------------------2/4\2-2-2/4---\2---2/4\2-2-2/4---\2---2/4\2-2-2-------------2---2-|
D|-3-------2------------------------------------------------------------------2h4---2h4---4---|
A|-------------2-3-5--0-----------------------------------------------------------------------|
E|--------------------------------------------------------------------------------------------|

e|---------------------------------------------------|
B|-3/5\3-2-3/5---\3-------5-----------5---7---8---10-|
G|-2/4\2-2-2/4---\2---4/6---6-4\2-4/6-6---6---9---11-|
D|---------------------------------------------------|
A|---------------------------------------------------|
E|---------------------------------------------------|


Capo moves to 4th Fret:


        F               C
  Well this is an invitation
G            F
  It's not a threat
     F               C
  If you want communication
G                  F
  That's what you get
      F
  I'm talking and talking
      C          E  riff1
  But I don't know

  How to connect
                                C      G  riff2
  And I hold a record for being patient
                            C  G  Riff2
  With your kind of hesitation
                  F
  I need you, you want me
      C          E
  But I don't know
            Am   Asus4
  How to connect, so I disconnect
G               riff3
  I disconnect.


riff1:                        riff2:
  e|-----0--------------|      e|------------------------------|   
  B|---------/8---8---6-|      B|-1/3\1-0-1/3---\1-------1---1-|     
  G|-0h1---1-/5---5---5-|      G|-2/4\2-0-2/4---\2---0h2---2-2-|
  D|--------------------|      D|------------------------------|
  A|--------------------|      A|------------------------------|
  E|--------------------|      E|------------------------------|

riff3:
  e|---------|
  B|---------|
  G|---0-4b5-|
  D|-3-------|
  A|---------|
  E|---------|

| /  slide up
| \  slide down
| h  hammer-on
| p  pull-off
| ~  vibrato
| +  harmonic
| x  Mute note





Comments


Popular Cardigans tabs & chords
Fine 1 Bass Tabs
Communication Chords
Deuce Chords
Drip Drop Teardrop Chords
For What It's Worth Chords
Iron Man Chords
Rise And Shine 1 Chords
Iron Man Tabs
Lovefool 2 Tabs
Carnival 2 Ukulele


Song lyrics



↑ Back to top | Tablatures and chords are parodies/interpretations of the original songs. You may use it for private study, scholarship, research or language learning purposes only
© 2014 AZChords.com Contact us | Privacy policy | DMCA | Add/correct tabs | Request tabs | Top 50 tabs