» » »

Cardigans, Blah Blah Blah Tabs (ver.1)

Artists:  A B C D E F G H I J K L M N O P Q R S T U V W X Y Z # 

Blah Blah Blah Tabs (ver.1)

Cardigans Tabs
 Rating:
4/5 (4 votes)
Blah Blah Blah lessons Tabs too difficult? Try these video lessons and learn fast
                
Basically it sounds like 2 guitars that play the same thing in different octaves. 
I tabbed the lower one.

Intro:
G|----------------------------------------------2---0-4-0h1-4-1-|
D|-------------2---/4-7-/4-7-/4-x---3---4-3-3h4-----------------|
A|-2---4-2-2h4--------------------------------------------------| x2
E|--------------------------------------------------------------|

D|-------------2-----------------2-|
A|-2---4-2-2h4-----2---4-4-2-2h4---| x2
E|---------------------------------|
Verse 1:
D|-------------2-----------------2-|
A|-2---4-2-2h4-----2---4-4-2-2h4---| x3
E|---------------------------------|

G|-------------2-----------------2-----------------|
D|-3---4-3-3h4-----3---4-4-3-3h4---------------2---|
A|---------------------------------2---4-2-2h4---2-|
E|-------------------------------------------------|

Bridge:
G|----------------------------------------------2---0-4-0h1-4-1-|
D|-------------2---/4-7-/4-7-/4-x---3---4-3-3h4-----------------|
A|-2---4-2-2h4--------------------------------------------------|
E|--------------------------------------------------------------|
Verse 2:

D|-------------2-----------------2-|
A|-2---4-2-2h4-----2---4-4-2-2h4---| x3
E|---------------------------------|

G|-------------2-----------------2---0-4-0h1-4-1---0-4-0h1-4-1-|
D|-3---4-3-3h4-----3---4-4-3-3h4-------------------------------|
A|-------------------------------------------------------------|
E|-------------------------------------------------------------|

Chorus:
G|----------------------------------------------2---0-4-0h1-4-1-|
D|-------------2---/4-7-/4-7-/4-x---3---4-3-3h4-----------------|
A|-2---4-2-2h4--------------------------------------------------| x4
E|--------------------------------------------------------------|

Enjoy!
            
Submit corrections

comments powered by Disqus
↑ Back to top | Cardigans Tabs for Blah Blah Blah. Lyrics for acoustic guitar and electric guitar. Tablatures and chords are parodies/interpretations of the original songs. You may use it for private study, scholarship, research or language learning purposes only