>
 >
Gina Lollabridgida

Gina Lollabridgida Guitar Tabs

Cardiacs - Gina Lollabridgida chords, tabs, tablatures, lyrics

Guitar lessons | Add/correct | Request | Top 50 tabs Artists:  A B C D E F G H I J K L M N O P Q R S T U V W X Y Z 0-9

Gina Lollabridgida Guitar Tabs – Cardiacs

CD, Sheet music, Poster

Do you like Gina Lollabridgida? Share with your friends now
Tabs
----------------------------------------------------------------------------
----------------------------------------------------------------------------


I used the Garage Concert version to tab this, it differs only slightly from the 
on The Seaside;
the beginning of the track starts with muting then a rhythm with a C chord, before going 
 song in the same way as heard on "The Seaside":


Intro, chords are played by the organ
   C                  F      G#
e-----------------------------------------|
B-----------------------------------------|
G--5-5-5--5-5-55-55-5-5-5-5--5-5-55-55-5--|
D--x-x-x--x-x-xx-xx-x-x-x-x--x-x-xx-xx-x--|
A--3-3-3--3-3-33-33-3-3-3-3--3-3-33-33-3--|
E-----------------------------------------|

C                                  F       G#
Here's me hidden in the underground and so far I don't mind
C                               C#    D#
That's why a-ha you'll find I'm never coming here
C                              F          G#
Buy me all the things I ask for nothing's too much for me
C                                  C#   D#     G#
Here more often than not a burst investigating main

Cm      A#          F            G#               A#
Never before did it seem what it used to seem its right by night time so

G#
find the right time

C                            F            G#
One day I'll be getting older and so what happpens
C                                 C#       D#    F
Now on the big screen or should I leave it all behind

G                         A
You laugh and I can never hear you
G       C          D#
Never before did I know
G                        A
A bigger chance to be congenial
G            C        D#
I once had a go on my own

(On the D# he runs down this little scale)
e------------------|
B------------------|
G-8-7-5------------|
D-------8-6-5------|
A-------------8-6--|
E------------------|

(Before returning to the intro)

   C                  F      G#
e-----------------------------------------|
B-----------------------------------------|
G--5-5-5--5-5-55-55-5-5-5-5--5-5-55-55-5--|
D--x-x-x--x-x-xx-xx-x-x-x-x--x-x-xx-xx-x--|
A--3-3-3--3-3-33-33-3-3-3-3--3-3-33-33-3--|
E-----------------------------------------|

C                             F      G#
Oh no see who's getting nearer all efforts wasted now
C                              C#   D#
That's why I'm right believing everything I see
C                                     F        G#
Whats new? "Bulldog Drummonds' peril"? "The tragedy of
C                         C#      D#      G#
A switchboard operator"? Another "Weekend World"?

Cm      A#          F            G#
Never before did it seem what it used to seem
     A#                  G#
It's packaged right like Gina Lollabridgida

   C           F     D#    C        D# C#
e--3-----------------------3-----------------|
B-----------------------------------------4--|
G-----5-----5-----5-----5-----5-----5--6-----|  x 3
D--------5-----3-----------------5-----------|
A--------------------6-----------------------|
E--------------------------------------------|
   C           D# C# F (the note in the bracket is played by the 2nd guitar)
e--3-------------------------|
B-----------------4--(6)-----|
G-----5-----5--6-----2-------|
D--------5-------------------|
A----------------------------|
E----------------------------|

G                         A
You laugh and I can never hear you
G       C          D#
Never before did I know
G                        A
A bigger chance to be congenial
G            C        D# (with the scale)
I once had a go on my own

Solo
   D                                           A#            G
e--17---------17---------17---------17-------------------------------------|
B----19p15h19---19p15h19---19p15h19---19p15h19-18-18-18p17/15---------15p19|
G------------------------------------------------------------16-16-/16-----|
D--------------------------------------------------------------------------|
A--------------------------------------------------------------------------|
E--------------------------------------------------------------------------|
(x 3, then on the 4th time it changes a little...)
   D                                           A#            G
e--17---------17---------17---------17--------------------------------|
B----19p15h19---19p15h19---19p15h19---19p15h19-18-18-18p17/15---------|
G------------------------------------------------------------16-16-16-|
D---------------------------------------------------------------------|
A---------------------------------------------------------------------|
E---------------------------------------------------------------------|

        A#            G             A#
e--------------------------------------------------------------------------|
B-15h17h18-18-18p17p15--------15h17-18--18--18--18--18-18-18-18-18-18-18-18|
G---------------------16-16-16---------------------------------------------|
D--------------------------------------------------------------------------|
A--------------------------------------------------------------------------|
E--------------------------------------------------------------------------|
   C                  F      G#
e-----------------------------------------|
B-----------------------------------------|
G--5-5-5--5-5-55-55-5-5-5-5--5-5-55-55-5--|
D--x-x-x--x-x-xx-xx-x-x-x-x--x-x-xx-xx-x--|
A--3-3-3--3-3-33-33-3-3-3-3--3-3-33-33-3--|
E-----------------------------------------|

   C           F     D#    C        D# C#    F
e--3-----------------------3-------------------------|
B---------------------------------------4--(10)------|
G-----5-----5-----5-----5-----5-----5--6-----2-------|
D--------5-----3-----------------5-------------------|
A--------------------6-------------------------------|
E----------------------------------------------------|

G                         A
You laugh and I can never hear you
G       C          D# (with the scale)
Never before did I know
G                        A
A bigger chance to be congenial
G            C        D# (with the scale, before the final chords, rit)
I once had a go on my own

F      G


Enjoy it...such a happy tune.


| /  slide up
| \  slide down
| h  hammer-on
| p  pull-off
| ~  vibrato
| +  harmonic
| x  Mute note
============================================================================





Comments


Popular Cardiacs tabs & chords
Fairy Mary Mag Chords
Flap Off You Beak Chords
Is This The Life Chords
The Alphabet Business Concern Home Of Fadeless Splendour Chords
Two Bites Of Cherry 1 Chords
Arnald Tabs
Dinner Time Is At Home Not Here Tabs
Wireless Tabs
Anything I Cant Eat Ukulele
Eden On The Air Ukulele


Song lyrics



↑ Back to top | Tablatures and chords are parodies/interpretations of the original songs. You may use it for private study, scholarship, research or language learning purposes only
© 2014 AZChords.com Contact us | Privacy policy | DMCA | Add/correct tabs | Request tabs | Top 50 tabs