» » »

Study No Tabs (ver.1)

Artists:  A B C D E F G H I J K L M N O P Q R S T U V W X Y Z # 

Study No Tabs (ver.1)

Carcassi Matteo
Rating:
0/5 (0 votes)

Hard to play? Try these video lessons and learn fast.
                "(4)
Matteo Carcassi
Study 4


|-------0-------0--|-------0-------0--|-------1-------1--|-------1-------1--|
|-----1-------1----|-----1-------1----|-----3-------3----|-----0-------0----|
|---0-------0------|---2-------2------|---2-------2------|---0-------0------|
|---------2--------|------------------|-0-------3--------|------------------|
|-3----------------|-0-------3--------|------------------|---------2--------|
|------------------|------------------|------------------|-3----------------|

|-------0-------3--|-------1-------1--|-------0-------1--|--0---------------|
|-----1-------2----|-----3-------3----|-----1-------0----|--1---------------|
|---0-------2------|---2-------2------|---0-------0------|--0---------------|
|------------------|-0-------3--------|------------------|------------------|
|-3-------0--------|------------------|------------------|--3---------------|
|------------------|------------------|-3-------3--------|------------------|
"            
Hard to play? Try these video lessons and learn fast. | Correct




comments powered by Disqus
↑ Back to top | Tablatures and chords are parodies/interpretations of the original songs. You may use it for private study, scholarship, research or language learning purposes only