» » »

Carcass, Rot 'n' Roll Tabs (ver.1)

Artists:  A B C D E F G H I J K L M N O P Q R S T U V W X Y Z # 

Rot 'n' Roll Tabs (ver.1)

Carcass Tabs
 Rating:
4/5 (4 votes)
Rot 'n' Roll lessons Tabs too difficult? Try these video lessons and learn fast
                CARCASS
'Rot 'N' Roll'




find more metal tablatures at


tune down to B (2.5 steps)


guitar 1. .    . .       . . . . . .
|-------------------------------------|---|---|---|
|-------------------------------------|---|---|---|
|-------------------------------------|---|---|---|
|-----9-----10-----14p10--------------|-%-|-%-|-%-|
|-5h7---0-0----0-0-------0-0-0-0-0-0--|---|---|---|
|-------------------------------------|---|---|---|

guitar 2. .   . .      . . . . . .                  . .        . .    .
|-----------------------------------|---|---|------------------------------|
|-----------------------------------|---|---|------------------------------|
|-----------------------------------|---|---|------------------------------|
|-----5-----7-----10p7--------------|-%-|-%-|-----5-----7p5--------8----5--|
|-5h7---0-0---0-0------0-0-0-0-0-0--|---|---|-5h7---0-0----7p5-0-0-6--0-3--|
|-----------------------------------|---|---|------------------------------|



   .       .  .  .       .            .       .  .  .       .
|----------------------------------|--------------------------------|
|----------------------------------|--------------------------------|
|----------------------------------|--------------------------------|
|---------------------------6------|---------------------------6----|
|--5---7-------------8------4---8--|--5---7-------------8------4----|
|--3---5---5--5--5---6---0------6--|--3---5---5--5--5---6---0-------|



           .  .  .       . . .            . . . . . . . . . . . . . .
|----------------------------------------------------------------------|
|----------------------------------------------------------------------|
|----------------------------------------------------------------------|
|-------------------------------6--------------------------------------|
|--5---7-------------8----------4--5-/-7--7-7-7-7-7-7-7-7-7-7-7-7-7-7--|
|--3---5---5--5--5---6---5-5-5-----3-/-5--5-5-5-5-5-5-5-5-5-5-5-5-5-5--|
                                          (at last time, faster)
|---------------------------|
|---------------------------|
|---------------------------|
|--8-------5-------10-------|
|--6-------3--------8-------|
|---------------------------|


                                  .  .  .       .
|-------------------------------------------------------|
|-------------------------------------------------------|
|-------------------------------------------------------|
|-7p5------7p5------7p5----------------------------6----|
|-----7~~------6~~------3-5---7-------------8------4----|
|-------------------------3---5---5--5--5---6---0-------|


|-------------------------------------------------------|
|-------------------------------------------------------|
|-------------------------------------------------------|
|-7p5------7p5------7p5-------------------------5~------|
|-----7~~------6~~------3-----------3--5--6-6h7---------|
|-------------------------3--4--5~~---------------------|


|-------------------------------------------------------|
|-------------------------------------------------------|
|-------------------------------------------------------|
|-7p5------7p5------7p5---------------------------------|
|-----7~~------6~~------3--7---5---7\-------------------|
|--------------------------5---3---5\-------------------|


and then play last three riffs again, only an octave higher.
            
Submit corrections

comments powered by Disqus
↑ Back to top | Carcass Tabs for Rot 'n' Roll. Lyrics for acoustic guitar and electric guitar. Tablatures and chords are parodies/interpretations of the original songs. You may use it for private study, scholarship, research or language learning purposes only