» » »

Carcass, Oxidised Razor Masticator Tabs (ver.1)

Artists:  A B C D E F G H I J K L M N O P Q R S T U V W X Y Z # 

Oxidised Razor Masticator Tabs (ver.1)

Carcass Tabs
Rating:
0/5 (0 votes)
Oxidised Razor Masticator lessons Tabs too difficult? Try these video lessons and learn fast
                (Tune down 2.5 steps to B)

Intro (4x)
|-----------------|-----------------|
|-----------------|-----------------|
|-----------------|-----------------|
|---------3-6-3---|---------6---3---|
|-2-2-2-2-3-6-3---|-2-2-2-2-6---3---|
|-0-0-0-0-1-4-1---|-0-0-0-0-4---1---|  
  e e e e e e q     e e e e q   q
Chorus:
"Salivation--sanguis, phlegm, froth, and foam
Masticating--your mandible stripped to the bone"

|---------------------|-------------------|
|---------------------|-------------------|
|---------------------|-------------------|
|---------------------|-------------------|
|---------------------|-44444444----------|
|-0000-7777-6666-3333-|----------33333333-|  
  ssss sim."Gaping and sore..."
|------------------|---------------|  Let the G5/Bb5 chords ring while
|------------------|---------------|  strumming them...
|------------------|---------------|
|------4\3---------|-3-3-----------|
|-2----2\1-5-5-----|-1-1-----4--3--|
|-0-00-----3-3-----|---------2--1--|
  e ss e e e q.      e q.    q  q
|---------------------|-------------------|  These last two beats are
|---------------------|-------------------|  played as quarter notes the
|---------------------|-------------------|  last time...
|---------------------|-------------------|
|------7777-----------|-55554444----------|
|-0000------4444-3333-|----------22221111-|  
  ssss sim.             ^44433 etc?
            
Submit corrections

comments powered by Disqus
↑ Back to top | Carcass Tabs for Oxidised Razor Masticator. Lyrics for acoustic guitar and electric guitar. Tablatures and chords are parodies/interpretations of the original songs. You may use it for private study, scholarship, research or language learning purposes only