» » »

Genital Grinder Ii Tabs (ver.1)

Artists:  A B C D E F G H I J K L M N O P Q R S T U V W X Y Z # 

Genital Grinder Ii Tabs (ver.1)

Carcass
Rating:
0/5 (0 votes)

Hard to play? Try these video lessons and learn fast.
                "Genital Grinder II" by Carcass
off of the album "Wake Up and Smell the Carcass"

Tune all the way down to frickin' B (2 and one half steps down from standard)

Gtr. 1 Intro
-------------------------------3------
-3-----3-----3---3-----3-----3--------
-3-----3-----3---3-----3--------------
-0-0-0-0-0-0-0-0-0-0-0-0-0-0----------

Gtr. 2 Intro
---|---|---|----------------------------
-2-|-5-|-2-|-8--------------------------
-2-|-5-|-2-|-8--------------------------
-0-|-3-|-0-|-6--------------------------

Rhythm Figure 1
-----------------------------------------------
--2--2-2h3p2p0-------------2----2-3-6-5--------
--2------------3-2-0-------2----2-3-6-5--------
--0------------------3-2---0----0-1-4-3--------

Rhythm Figure 2
---------------------------------------------------
-2-----2-----2-----3-5---2-------------3-6-5-------
-2-----2-----2-----3-5---2-------------3-6-5-------
-0-0-0-0-0-0-0-0-0-1-3---0-0-0-0-0-0-0-1-4-3-------

Rhythm Figure 3
-2--2--2-2h3p2p0-5-4-2--2-2h3p2p0-7-5-2--2-2h3p2p0-9-7-2--2-2h3p2p0------
-2---------------5-4--------------7-5--------------9-7-------------------
-0---------------3-2--------------5-3--------------7-5-------------------

Rhythm Figure 4
-----------------------------------------
-2---2--3-6-5----------------------------
-2---2--3-6-5----------------------------
-0---0--1-4-3----------------------------

Play Intro x8 
Play Gtr. 2 Intro twice while Gtr 1 Intro plays 8 more times
Play Rhythm Figure 1 x4
Play Rhythm Figure 2 x4
Play Rhythm Figure 3 x2
Play Rhythm Figure 4 x2
Play Rhythm Figure 1 x4
Play Rhythm Figure 2 x4
Play Rhythm Figure 3 x2
Play Rhythm Figure 4 x2
            
Hard to play? Try these video lessons and learn fast. | Correct




comments powered by Disqus
↑ Back to top | Tablatures and chords are parodies/interpretations of the original songs. You may use it for private study, scholarship, research or language learning purposes only