» » »

Death Certificate Tabs (ver.2)

Artists:  A B C D E F G H I J K L M N O P Q R S T U V W X Y Z # 

Death Certificate Tabs (ver.2)

Carcass
Rating:
0/5 (0 votes)

Hard to play? Try these video lessons and learn fast.
                (Solo)
Para:           

Asunto:         Carcass tabs

I`d like very much the death certificate tabs. They are good... But, were is the solo? I`d tried to do it and then translate at tabs, so there is it:
E-|----------------------------------------------------------------------------|
B-|---------------------------------------------12--13--15--12h13-----12-------|
G-|--12p9---------------11----12-----11h12h14----------------------14----12h14-|
D-|----------9~~-----9------9-----9--------------------------------------------|
A-|----------------------------------------------------------------------------|
E-|----------------------------------------------------------------------------|
                     .      .     .

E-|----------------------------------------------------------------------------|
B-|----------------------------------------------------------------------------|
G-|--11h12---9h11---7h9-----7--------------------------------------------------|
D-|----------------------10---9---7~~~----7h9h7--5--4~~~---9--7--9--10--9--10--|
A-|----------------------------------------------------------------------------|
E-|----------------------------------------------------------------------------|
                                                       P.M.|-------------------
  
E-|-----------------------------------------------------------------/12p10p8---|
B-|------------------------------------------------------------12~-------------|
G-|---------------9-------9--11--9--11--12--11--12--14--12--14-----------------|
D-|--12--10--12------12--------------------------------------------------------|
A-|----------------------------------------------------------------------------|
E-|----------------------------------------------------------------------------|
   ------------|      . 

E-|-/14p12p10---/15p14p12---/17p15p14---/19p17p15---/20p19p17---19~~~~~~~------|
B-|----------------------------------------------------------------------------|
G-|----------------------------------------------------------------------------|
D-|----------------------------------------------------------------------------|
A-|----------------------------------------------------------------------------|
E-|----------------------------------------------------------------------------|
                                 

E-|--12----------------------|
B-|--15fb--------12----------|
G-|--------------14fb--------|
D-|--------------------------|
A-|--------------------------|
E-|--------------------------|

Gtr. 2 (wha)
E-|----------------------------------------------------------------------------|
B-|-----------15fb---15--13--12thrill(13)---------------harm.------------------|
G-|-----------------------------------------------14~~---14fb---14--12--11-----|
D-|----------------------------------------------------------------------------|
A-|----------------------------------------------------------------------------|
E-|----------------------------------------------------------------------------|


E-|----------------------------------------------------------------------------|
B-|-------------------------12--------------12--13fbr--12thrill(13)--12h13h15--|
G-|--12--11thrill(12)--9~~-----14--14----14------------------------------------|
D-|----------------------------------------------------------------------------|
A-|----------------------------------------------------------------------------|
E-|----------------------------------------------------------------------------|


E-|--12h14h15p14p12-------12--14--15--17fb-------------------------------------|
B-|--------------------15------------------------------------------------15~~--|
G-|-----------------------------------------14~--16--17----14~--16--17---------|
D-|----------------------------------------------------------------------------|
A-|----------------------------------------------------------------------------|
E-|----------------------------------------------------------------------------|


E-|---------------15-----------------------------------------------------------|
B-|--13--15---15fb---(15r)---13h15p13---12-------------------------------------|
G-|-------------------------------------------14--17--16--14--16--14--12-------|
D-|------------------------------------------------------------------------14~~|
A-|----------------------------------------------------------------------------|
E-|----------------------------------------------------------------------------|


E-|----------------------------------------------14-15-17-15-14----14-15/19~~~-|
B-|-------------------------------------13h15h17----------------17-------------|
G-|------------------12h14p12--12h14h16----------------------------------------|
D-|----------12-14-16--------16------------------------------------------------|
A-|-12-14-15-------------------------------------------------------------------|
E-|----------------------------------------------------------------------------|
     .  .  .  .  .  .

You may listen to the solo with attention, and then try to do it with the same feeling. 
            
Hard to play? Try these video lessons and learn fast. | Correct




comments powered by Disqus
↑ Back to top | Tablatures and chords are parodies/interpretations of the original songs. You may use it for private study, scholarship, research or language learning purposes only