» » »

Carcass, Corporal Jigsore Quandary Tabs (ver.1)

Artists:  A B C D E F G H I J K L M N O P Q R S T U V W X Y Z # 

Corporal Jigsore Quandary Tabs (ver.1)

Carcass Tabs
 Rating:
4/5 (4 votes)
Corporal Jigsore Quandary lessons Tabs too difficult? Try these video lessons and learn fast
                Band: CARCASS


Tuning (Low to High): B E A D F# B
[Intro sample 0:00 - 0:44] then, Drum intro

A                                                           Play twice
|--------------------------------------------------------------------|
|---------------------------------------------------5------------5---|
|2------------2-3-2------------2-3-6------------6\3-3---33333333-3-3-|
|0---00000000-0-1-0---00000000-0-1-4---44444444-4\1----------------1-|
     ........         ........         ........         ........

Repeat A x 2 under lead A'

A'                    [1,3]                                   [2]
|9---9/10--9---7--9---9/10--9---7--8---8/9---8---6---|12--12/13--12--8---|
|----------------------------------------------------|-------------------|
|7---7/8---7---5--7---7/8---7---5--6---6/7---6---4---|10--10/11--10--6---|
|----------------------------------------------------|-------------------|

               [4] *            * these notes are played when riff B comes in
|5---3/5---6---12--9~----------------|
|------------------------------------|
|3---1/3---4---10--7~----------------|
|------------------------------------|

B                                              Play twice
|------------------------------------------------------|
|-------------------------5---------------5------------|
|2------2------3------6-3-3-2------2-3333-3------3-6-3-|
|0-0000-0-1111-1-4444-4-1---0-0000-0--------1111-1-4-1-|
   ....   ....   ....         ....   ....   ....

Repeat A x 4

C     [1-3]              [4]
|----------------|----------------|
|--------5-------|--------7\4-----|
|6---5/6-3---6\3-|6---9/6-5\2-6\3-|
|4-0-3/4---0-4\1-|4-0-7/4-----4\1-|
   .       .        .

Repeat C x 3

D             Play 4 times
|------------------------|
|----2-------3---------5-|
|--1-----------4-----4---|
|0-----5-3-4-----5-3-----|

Repeat C x 4, D x 4

E                                     Play 4 times
|------------------------------------------------|
|6-----------7-8---------6-------------2-3-------|
|--5-------8-----7-6-------5---------3-----3-----|
|----4-3-4-----------6-7-----4-3~~-2---------4-3-|

Repeat A x 4



Fill 1
|--------------------------------------------------------|
|2-------------------(2)---------------------------------|
|2-------------------(2)--------------------------3-6-3--|
|0-------------------(0)--------------------------1-4-1--|


(lead: "Human Jigsaw" by W. G. Steer) w/Riff B x 4
|-------------------------------------------------------------------------------|
|-------------------------------------------------------------12----12-13-12-13-|
|--------------------------------9----9---8-9-8-9-11-13-11-13----13-------------|
|--------8----8-10-8-10-11-10-11---11--11---------------------------------------|
|10-9-10---10-------------------------------------------------------------------|
|-------------------------------------------------------------------------------|
 pml........................................................................

----------------------------------------------|
14-12-13-13p12h13h16p13-16b18r16p13h16-13-12\-|
----------------------------------------------|
----------------------------------------------|
----------------------------------------------|
----------------------------------------------|

|-----------------------------------------------------------------------------|
|-----17-16-17-16h17p16p13h16-13-12-17-16-17-13h16p13\12----12-------------12-|
|9/------------------------------------------------------15----15-12----12----|
|--------------------------------------------------------------------14-------|
|-----------------------------------------------------------------------------|
|-----------------------------------------------------------------------------|

-------------------------------------------------------------|
---12--------------------------------------------------------|
15----15-12-15-12--------------------------------------------|
------------------14~~-13h14p13-10h13p10-9------9------------|
-------------------------------------------7-10---10-7---7b8-|
-------------------------------------------------------------|

|--------------------------------------------------12---14---15---14---12---|
|----------------------------------------12---13----------------------------|
|-----------------------------------14--------------------------------------|
|-------------------------14---15-------------------------------------------|
|----------12---14---15-----------------------------------------------------|
|12---13--------------------------------------------------------------------|
 pml..........................................

11---12---14---15---14---12---14~~~~~-----|
------------------------------------------|
------------------------------------------|
------------------------------------------|
------------------------------------------|
------------------------------------------|

|----------------------------------------------------------------------------|
|----17p16----16-------------------------------------------------------------|
|----------17----17-16-17p16-17-16-14----------------------14-14-16-16-17-17-|
|16-----------------------------------16-14-14-16-16-17-17-------------------|
|----------------------------------------------------------------------------|
|----------------------------------------------------------------------------|
 pm                                      pml.................................

------------------------------------------------------15-15-17-17-19---------|
------------------16-16-17-17-19-19-16-16-17-17-19-19-------------------17~~~|
14-14-16-16-17-17------------------------------------------------------------|
-----------------------------------------------------------------------------|
-----------------------------------------------------------------------------|
-----------------------------------------------------------------------------|
pml...................................................

F          [1-3]                             [4]
|---/9-8-------6-7-7/9-6---------|---/9-8-------6-7---9-----------|
|----------9---------------------|----------9---------------------|
|2--/7-6-------4-5-5/7-4---7---6-|2--/7-6-------4-5---7---7b8r----|
|0---------7---------------5---4-|0---------7---------------------|


(lead: “A heaving organic puzzle” by M. Amott) w/Riff F
|-------------------------------------------------------|
|-------------------------------------------------------|
|------------------17-16~------17p16----17p16----19~----|
|------------17-16----------17-------17-------17--------|
|------15-14--------------------------------------------|
|/12~---------------------------------------------------|

|-------------------------------------------------------|
|----------------------------------17-------------------|
|----13-13h14p13----13----13-14-16----16-14\13----------|
|/14-------------14----14----------------------15\14~---|
|-------------------------------------------------------|
|-------------------------------------------------------|

               * depress bar, fret then release back up to normal
|-------------------------------------------------------|
|---with bar---*-----ph---------------------------------|
|--\/-----\/---\/----9~---------------------------------|
|14tr15-13tr14--9~--------10-9~---12-10-9-9h10p9--------|
|------------------------------------------------12-10--|
|-------------------------------------------------------|
                                  pm...................

|-------------------------------------------------------|
|-------------------------------------------------------|
|-------------------------------------------------------|
|12-10-9-7b(9)~-----------------------------------------|
|-----------------------10-9-7~~~~~---------------------|
|-------------------------------------------------------|
 pm.....


G1                              Guitar 1
|----------------------------------------|
|----9-----11---------9----------7h8-8~--|
|--7---8------7-8---7---9----------------|
|0-------9----5-6-0-------5h6-6~---------|
|                               Guitar 2 |
|----------------------------------------|
|2----------------2--------------7h8-8~--|
|2------------7-8-2----------------------|
|0------------5-6-0-------5h6-6~---------|
                  .

Repeat G1

G2                               Guitar 1
|----------------------------------------|
|----9-----11---------9----------7h8-8~--|
|--7---8------7-8---7---9----------------|
|0-------9----5-6-0-------5h6-6~---------|
|                               Guitar 2 |
|----------------------------------------|
|2----------------2-2------------7h8-8~--|
|2------------7-8-2-2--------------------|
|0------------5-6-0-0-----5h6-6~---------|
                  . .

Repeat G2

G3 (both guitars)               Play twice
|----------------------------------------|
|----9-----11---------9----------7h8-8~--|
|--7---8------7-8---7---9----------------|
|0-------9----5-6-0-------5h6-6~---------|

Repeat D x 4, E x 3

Outro
|--------------------------------------4-5----------|
|6-----------7-8---------6-----------5-2-3-5--------|
|--5-------8-----7-6-------5-------4-3-----3-6-4-2--|
|----4-3~~-----------6-7-----4-3~~-2---------4-3-0--|
                                                 .

The End!
            
Submit corrections

comments powered by Disqus
↑ Back to top | Carcass Tabs for Corporal Jigsore Quandary. Lyrics for acoustic guitar and electric guitar. Tablatures and chords are parodies/interpretations of the original songs. You may use it for private study, scholarship, research or language learning purposes only