>
 >
Child's Play 1

Child's Play 1 Guitar Tabs

Carcass - Child's Play 1 chords, tabs, tablatures, lyrics

Guitar lessons | Add/correct | Request | Top 50 tabs Artists:  A B C D E F G H I J K L M N O P Q R S T U V W X Y Z 0-9

Child's Play 1 Guitar Tabs – Carcass

CD, Sheet music, Poster

Do you like Child's Play 1? Share with your friends now
TabsTabs v2
Band: Carcass


.  - palm mute                    /  - slide up to
\  - slide down to                ~  - vibrato             
h  - hammer on                    b  - bend 
p  - pull off                          Suffixes for bend    
ph - pinch harmonic                        f - full bend    h - half bend

*  - see comment                           r - release      t - tap bend
X  - percussion mute                       ~ - vibrato bend
@  - slight palm mute             () - ghost note, sustained note
"  - tremolo pick until next note

Tune Down 2.5 steps to B

 RIFF 1                            
|-------------------------------------------------------|
|-------------------------------------------------------|GTRS
|-------------------------------------------------------|1&2
|--------------------------------------5---6--9/10-9/8--|
|---*--2-222-2--5-6-6-66-66--6-----6---3---4--7/-8-7/6--|
|-/15\-0-000-0--3-4-4-44-44--4-444-4-0---0--------------|
         ...    .   .    ..    ...   .   .   *INTRO ONLY 

 
 RIFF 1.A     PLAY 3 TIMES
|-------------------------------------------------|
|-------------------------------------------------|GTRS
|-------------------------------------------------|1&2
|--------------------------------5---6--9/10-9/8--|
|-2222-2--5-6-6-66-66--6-----6---3---4--7/-8-7/6--|
|-0000-0--3-4-4-44-44--4-444-4-0---0--------------|
  ....    .   .    ..    ...   .   .

 RIFF2         PLAY 2 TIMES
|--------------------------------------------------------------|
|--------------3-----------------------------------------3-----|GTRS
|-----0------0---0------0----------2p0----------0------0---0---|1&2
|-------0-------------4---2----0h2-----0h2--------0------------|  
|---2------3--------5-----0-------------------2------3---------|  
|-0-----------------------------------------0------------------|

|------------------|
|------------------|GTRS
|-----0------------|1&2
|---4---2----------|  
|-5-----0----------|  
|------------/17\--|    


PLAY RIFF 1     1 TIME
PLAY RIFF 1.A 3 TIMES
PLAY RIFF 2   2 TIMES

 RIFF 3                                                                 *P.H.
|-------------------------------------------------------------------------|
|-------------------------------------------------------------------------|GTR
|-------------------------------------------------------99-9/7-77-7/4---*-| 1
|--------7-5------------5~---------5~---------7-5-----------------------5-|
|------5-----9-2--7p5-7----7-7p5-7----------5-----9-2---77-7/5-55-5/2-----|
|-3--7---------0-----------------------3--7---------0-----------------3---|
|                                                                         |
|                                                                         |
|-------------------------------------------------------------------------|
|-------------------------------------------------------------------------|GTR
|-----------------------4~---------4~-------------------99-9/7-77-7/4---*-| 2
|--------7-5------5p4-5----5-5p4-5------------7-5-----------------------5-|
|------5-----9-2----------------------------5-----9-2---77-7/5-55-5/2-----|
|-3--7---------0-----------------------3--7---------0-----------------3---|
 

|----------------------------------------------------------|
|----------------------------------------------------------|GTR
|----------------------------------------------------------| 1
|--------7-5------------5~---------5~---------7-5-------7--|
|------5-----9-2--7p5-7----7-7p5-7----------5-----9-2---5--|
|-3--7---------0-----------------------3--7---------0------|
|                                                          |
|                                                          |
|----------------------------------------------------------|
|----------------------------------------------------------|GTR
|-----------------------4~---------4~----------------------| 2
|--------7-5------5p4-5----5-5p4-5------------7-5-------7--|
|------5-----9-2----------------------------5-----9-2---5--|
|-3--7---------0-----------------------3--7---------0------|



 RIFF 4           PLAY 4 TIMES
|----------------------------------------------------------|
|----------------------------------------------------------|GTR
|----------------------------------------------------------| 1
|----------------------------------------------------------|
|----------------------------------------------------------|
|-0-0000-0-0000-0-0000-0-0000-0-0000-0-0000-0-0000-0-0000--|
| . .... . .... . .... . .... . .... . .... . .... . ....  |
|                                                          |
|----------------------------------------------------------|
|----------------------------------------------------------|GTR
|----------------------------------------------------------| 2
|-----------------------------11-12------------------------|
|-2----------------------------9-10------------------------|
|-0--------------------------------------------------/14\--|

 Solo

 RIFF 5       PLAY 2 TIMES
|---------------------------------------------------|
|---------------------------------------------------|GTR
|---------------------------------------------------| 1
|----------5----------4h5h7-------------------5-----|
|-7--7-5-7---7~-7-5-7-------5h7h9-5--7--7-5-7---7~--|
|---------------------------------------------------|
|                                                   |
|                                                   |  
|---------------------------------------------------|
|---------------------------------------------------|GTR
|----------4----------2h4h5-------------------4-----| 2
|-5--5-4-5---5~-5-4-5-------5h7h9-5--5--5-4-5---5~--|
|---------------------------------------------------|
|---------------------------------------------------|

 RIFF 5.A      PLAY 2 TIMES              
|---------------------------------------------------|
|---------------------------------------------------|GTR
|----------7----------6h7h9--------------------7----| 1
|-9--9-7-9---9~-9-7-9-------7h9h11-7--9--9-7-9---9~-|
|---------------------------------------------------|
|---------------------------------------------------|
|                                                   |
|                                                   |  
|---------------------------------------------------|
|---------------------------------------------------|GTR
|----------4----------2h4h5-------------------4-----| 2
|-5--5-4-5---5~-5-4-5-------5h7h9-5--5--5-4-5---5~--|
|---------------------------------------------------|
|---------------------------------------------------|

 PLAY RIFF 1   1 TIME
 PLAY RIFF 1.A 3 TIMES
 PLAY RIFF 2   2 TIMES
 PLAY RIFF 3   2 TIMES
 PLAY RIFF 4 AND FADE OUT





Comments


Popular Carcass tabs & chords
Heartwork Bass Tabs
Heartwork 2 Bass Tabs
Black Star 1 Tabs
Buried Dreams 1 Tabs
Carnal Forge Tabs
Death Certificate Tabs
Edge Of Darkness (Solo) Tabs
Edge Of Darkness 1 Tabs
Lavaging Expectprate Of Lysergide Tabs
This Mortal Coil Tabs


Song lyrics



↑ Back to top | Tablatures and chords are parodies/interpretations of the original songs. You may use it for private study, scholarship, research or language learning purposes only
© 2014 AZChords.com Contact us | Privacy policy | DMCA | Add/correct tabs | Request tabs | Top 50 tabs