» » »

Torn To Tattered Bass tabs (ver.1)

Artists:  A B C D E F G H I J K L M N O P Q R S T U V W X Y Z # 

Torn To Tattered Bass tabs (ver.1)

Carbon Leaf
Rating:
0/5 (0 votes)

Hard to play? Try these video lessons and learn fast.
                this is most of the song..a few times the bassist changes
it up, and at the end he changes the beat to somthin 
funky, and i will submit that later, so this is all for
now.

there are a few interpretations ive heard of this, and
this one is what i came up with.

G-------9-----6-----6------------------
D--7-7-----7-----0-----0---------------
A-------------------------0------------
E--------------------------------------


G----9----9/11--11--9------9-----------
D--7---7---------------11-----11--9\7--
A--------------------------------------
E--------------------------------------
            
Hard to play? Try these video lessons and learn fast. | Correct




comments powered by Disqus
↑ Back to top | Tablatures and chords are parodies/interpretations of the original songs. You may use it for private study, scholarship, research or language learning purposes only