» » »

Carbon Leaf, The Boxer Tabs (ver.1)

Artists:  A B C D E F G H I J K L M N O P Q R S T U V W X Y Z # 

The Boxer Tabs (ver.1)

Carbon Leaf Tabs
 Rating:
4/5 (5 votes)
The Boxer lessons Tabs too difficult? Try these video lessons and learn fast
                e-|-0--0--2h0--0--0--3h0--0--0--5h0--3h0--2h0--
b-|--------------------------------------------
g-|--------------------------------------------Keeps 
d-|--------------------------------------------Repeating
a-|--------------------------------------------
e-|--------------------------------------------

e-|-strum-along-with-song--|
b-|--3----3--3--3--3-------|
g-|--2----2--2--2--0-------|
d-|--2----3--2--2--x-------|
a-|--0----0--3-----2-------|
e-|----------------3-------|

Chorus is same progression of these chords.

the electric guitar part of the song 
e-|-3--1--0-----|
b-|----------3--|
g-|-------------|
d-|-------------|
a-|-------------|
e-|-------------|
            
Submit corrections

comments powered by Disqus
↑ Back to top | Carbon Leaf Tabs for The Boxer. Lyrics for acoustic guitar and electric guitar. Tablatures and chords are parodies/interpretations of the original songs. You may use it for private study, scholarship, research or language learning purposes only