» » »

Indecision Tabs (ver.1)

Artists:  A B C D E F G H I J K L M N O P Q R S T U V W X Y Z # 

Indecision Tabs (ver.1)

Carbon Leaf
Rating:
0/5 (0 votes)

Hard to play? Try these video lessons and learn fast.
                (Intro)
----------------------------------------------------------------------------
                             Indecision - Carbon Leaf
----------------------------------------------------------------------------

Tuning: Standard

This includes the rhythm Terry uses when he plays it on the recording and live.  
Note that on the second two chords it is easiest to play low E with thumb.

e| 0--00-0---0-0-000--00-0--00-0-00 |
b| 0--00-0---0-0-005--55-3--33-3-33 |
g| 1--11-6---6-6-666--66-0--00-0-00 |
d| 2--22-7---7-7-777--77-4--44-4-44 |
a| 2--22-7---7-7-770--00-5--55-5-55 |
e| 0--00-0---0-0-005--55-3--33-3-33 |


x4 until the singing starts
            
Hard to play? Try these video lessons and learn fast. | Correct




comments powered by Disqus
↑ Back to top | Tablatures and chords are parodies/interpretations of the original songs. You may use it for private study, scholarship, research or language learning purposes only