» » »

Comfort Tabs (ver.1)

Artists:  A B C D E F G H I J K L M N O P Q R S T U V W X Y Z # 

Comfort Tabs (ver.1)

Carbon Leaf
Rating:
5/5 (1 vote)

Hard to play? Try these video lessons and learn fast.
                -------------------------------------------------------------------------------
-------------------------------------------------------------------------------


Tuning: standard


Intro:

e|-------7---7------------------------5---5--4----------------------------|
B|--------------10-9-7-9-10-9----------------9-7-5-7-9-7-5----------------|
G|------9---9-----------------9------7---7--------------------------------|  x2
D|-----9---9------------------------7---7---------------------------------| 
A|----7----------------------------5--------------------------------------|
E|------------------------------------------------------------------------|


Verse:

E       B        D     A
I raced along an empty highway.
E            B
I chased the dawn
D              A
And cursed the new day,
       D    A   
Out of town, till nobody was around.
...


Fill:

e|--4---4---4h5---5-----------------------------------|
B|----5---5-----5---5---------------------------------|
G|----------------------------------------------------| reapeat during verse
D|----------------------------------------------------| 
A|----------------------------------------------------|
E|----------------------------------------------------|


Chorus (verse chord progression):

E          B
My life is open wide
    D                           A
The more you live, the less you will die.
Outside, floating free,
I'm finally open to see...
Could you be any more comfort to me?


Bridge:

e|--5---5---4---4---2---2---2---2h4-------------------|
B|----5---5---5---5---5---5---5-----5-----------------|
G|----------------------------------------------------| repeat during bridge
D|----------------------------------------------------| 
A|----------------------------------------------------|
E|----------------------------------------------------|



There are several variations on these chords.  All of them have pros and cons.
Experiment to find out which one you like best.


Version 1:

      E        B        D        A
e|----0--------2--------2--------0-------------------------------------------|
B|----0--------4--------3--------2-------------------------------------------|
G|----1--------4--------2--------2-------------------------------------------|
D|----2--------4--------0--------2-------------------------------------------|
A|----2--------2--------0--------0-------------------------------------------|
E|----0--------x--------0--------0-------------------------------------------|
 

Version 2:

      E        B        D        A
e|---------------------------------------------------------------------------|
B|---------------------------------------------------------------------------|
G|----9--------4--------7--------2-------------------------------------------|
D|----9--------4--------7--------2-------------------------------------------|
A|----7--------2--------5--------0-------------------------------------------|
E|---------------------------------------------------------------------------|


Version 3:

      E        B        D        A
e|---------------------------------------------------------------------------|
B|---------------------------------------------------------------------------|
G|----9-----------------7----------------------------------------------------|
D|----9--------9--------7--------7-------------------------------------------|
A|----7--------9--------5--------7-------------------------------------------|
E|-------------7-----------------5-------------------------------------------|



| /  slide up
| \  slide down
| h  hammer-on
| p  pull-off
| ~  vibrato
| +  harmonic
| x  Mute note
===============================================================================
            
Hard to play? Try these video lessons and learn fast. | Correct




comments powered by Disqus
↑ Back to top | Tablatures and chords are parodies/interpretations of the original songs. You may use it for private study, scholarship, research or language learning purposes only